  0
SECTION
  2
HEADER
  9
$ACADVER
  1
AC1009
  9
$ANGBASE
 50
0.000000
  9
$ANGDIR
 70
     0
  9
$ATTDIA
 70
     0
  9
$ATTMODE
 70
     1
  9
$ATTREQ
 70
     1
  9
$AUNITS
 70
     0
  9
$AUPREC
 70
     0
  9
$AXISMODE
 70
     0
  9
$AXISUNIT
 10
0.000000
 20
0.000000
  9
$BLIPMODE
 70
     1
  9
$CECOLOR
 62
   256
  9
$CELTYPE
  6
BYLAYER
  9
$CHAMFERA
 40
0.000000
  9
$CHAMFERB
 40
0.000000
  9
$CLAYER
  8
0
  9
$COORDS
 70
     0
  9
$DIMALT
 70
     0
  9
$DIMALTD
 70
     2
  9
$DIMALTF
 40
25.400000
  9
$DIMAPOST
  1

  9
$DIMASO
 70
     1
  9
$DIMASZ
 40
0.153877
  9
$DIMBLK
  1

  9
$DIMBLK1
  1

  9
$DIMBLK2
  1

  9
$DIMCEN
 40
9.000000E-02
  9
$DIMDLE
 40
0.000000
  9
$DIMDLI
 40
0.380000
  9
$DIMEXE
 40
0.150000
  9
$DIMEXO
 40
0.100000
  9
$DIMLFAC
 40
1.000000
  9
$DIMLIM
 70
     0
  9
$DIMPOST
  1

  9
$DIMRND
 40
0.000000
  9
$DIMSCALE
 40
1.000000
  9
$DIMSE1
 70
     0
  9
$DIMSE2
 70
     0
  9
$DIMSHO
 70
     0
  9
$DIMTAD
 70
     0
  9
$DIMTIH
 70
     0
  9
$DIMTM
 40
0.000000
  9
$DIMTOH
 70
     1
  9
$DIMTOL
 70
     0
  9
$DIMTP
 40
0.000000
  9
$DIMTSZ
 40
0.000000
  9
$DIMTXT
 40
0.156000
  9
$DIMZIN
 70
     0
  9
$DRAGMODE
 70
     1
  9
$DWGCODEPAGE
  3
ansi_1252
  9
$ELEVATION
 40
0.000000
  9
$EXTMAX
 10
20.504963
 20
5.973422
 30
0.000000
  9
$EXTMIN
 10
-1.210365
 20
-5.634225
 30
0.000000
  9
$FASTZOOM
 70
     1
  9
$FILLETRAD
 40
6.250000E-02
  9
$FILLMODE
 70
     1
  9
$GRIDMODE
 70
     0
  9
$GRIDUNIT
 10
0.000000
 20
0.000000
  9
$INSBASE
 10
0.000000
 20
0.000000
 30
0.000000
  9
$LIMCHECK
 70
     0
  9
$LIMMAX
 10
20.504963
 20
5.973422
  9
$LIMMIN
 10
-1.210365
 20
-5.634225
  9
$LTSCALE
 40
1.000000
  9
$LUNITS
 70
     2
  9
$LUPREC
 70
     3
  9
$MEASUREMENT
 70
     0
  9
$MENU
  1
ACAD
  9
$MIRRTEXT
 70
     0
  9
$ORTHOMODE
 70
     0
  9
$OSMODE
 70
     0
  9
$PDMODE
 70
     0
  9
$PDSIZE
 40
0.000000
  9
$PLINEWID
 40
0.000000
  9
$PROXYGRAPHICS
 70
     0
  9
$QTEXTMODE
 70
     0
  9
$REGENMODE
 70
     1
  9
$SKETCHINC
 40
0.100000
  9
$SKPOLY
 70
     0
  9
$SNAPANG
 50
0.000000
  9
$SNAPBASE
 10
0.000000
 20
0.000000
  9
$SNAPISOPAIR
 70
     0
  9
$SNAPMODE
 70
     0
  9
$SNAPSTYLE
 70
     0
  9
$SNAPUNIT
 10
1.000000
 20
1.000000
  9
$SPLFRAME
 70
     0
  9
$SPLINESEGS
 70
     8
  9
$TDCREATE
 40
2453188.600764
  9
$TDINDWG
 40
0.000000
  9
$TDUPDATE
 40
2453188.600764
  9
$TDUSRTIMER
 40
0.000000
  9
$TEXTSIZE
 40
0.156000
  9
$TEXTSTYLE
  7
STANDARD
  9
$THICKNESS
 40
0.000000
  9
$TRACEWID
 40
5.000000E-02
  9
$USERI1
 70
     0
  9
$USERI2
 70
     0
  9
$USERI3
 70
     0
  9
$USERI4
 70
     0
  9
$USERI5
 70
     0
  9
$USERR1
 40
0.000000
  9
$USERR2
 40
0.000000
  9
$USERR3
 40
0.000000
  9
$USERR4
 40
0.000000
  9
$USERR5
 40
0.000000
  9
$USRTIMER
 70
     1
  9
$VIEWCTR
 10
9.647299
 20
0.169598
  9
$VIEWDIR
 10
0.000000
 20
0.000000
 30
1.000000
  9
$VIEWSIZE
 40
11.607647
  0
ENDSEC
  0
SECTION
  2
TABLES
  0
TABLE
  2
LTYPE
 70
     3
  0
LTYPE
  2
SOLID
  3
Solid
 70
    64
 72
    65
 73
     0
 40
0.000000
  0
LTYPE
  2
PHANTOM
  3
Phantom
 70
    64
 72
    65
 73
     6
 40
1.187500
 49
0.750000
 49
-6.250000E-02
 49
0.125000
 49
-6.250000E-02
 49
0.125000
 49
-6.250000E-02
  0
LTYPE
  2
CONSTRUCTION
  3
Construction
 70
    64
 72
    65
 73
     2
 40
4.000000E-02
 49
1.000000E-02
 49
-3.000000E-02
  0
ENDTAB
  0
TABLE
  2
LAYER
 70
     2
  0
LAYER
  2
Layer0$C$L0
 70
     0
  6
SOLID
 62
     2
  0
LAYER
  2
Layer85$C$L85
 70
     0
  6
SOLID
 62
     6
  0
ENDTAB
  0
TABLE
  2
STYLE
 70
     1
  0
STYLE
  2
STANDARD
  3
txt
  4

 40
0.000000
 41
1.000000
 42
0.125000
 50
0.000000
 70
     0
 71
     0
  0
ENDTAB
  0
TABLE
  2
DIMSTYLE
 70
     1
  0
DIMSTYLE
  2
STANDARD
 70
     0
  3

  4

  5

  6

  7

 40
1.000000
 41
0.180000
 42
0.000000
 43
0.380000
 44
0.000000
 45
0.000000
 46
0.000000
 47
0.000000
 48
0.000000
140
0.156000
141
9.000000E-02
142
0.000000
143
1.000000
144
1.000000
145
0.000000
146
1.000000
147
7.800000E-02
 71
     0
 72
     0
 73
     0
 74
     0
 75
     0
 76
     0
 77
     3
 78
     0
170
     0
171
     0
172
     0
173
     0
174
     0
175
     0
176
     0
177
     0
178
     0
270
     2
271
     2
272
     2
273
     2
274
     2
275
     1
280
     0
281
     0
282
     0
283
     1
284
     0
285
     0
286
     0
287
     3
288
     0
  0
ENDTAB
  0
TABLE
  2
APPID
  5
1
100
AcDbSymbolTable
 70
     1
  0
APPID
  5
2
100
AcDbSymbolTableRecord
100
AcDbRegAppTableRecord
  2
ACAD
 70
     0
  0
ENDTAB
  0
ENDSEC
  0
SECTION
  2
BLOCKS
  0
BLOCK
  8
Layer0$C$L0
  2
*X0
 70
     1
 10
0.000000
 20
0.000000
  0
LINE
  8
Layer0$C$L0
 10
2.810128
 20
-3.894752
 11
2.818989
 21
-3.885890
  0
LINE
  8
Layer0$C$L0
 10
2.829306
 20
-3.854360
 11
2.778599
 21
-3.905068
  0
LINE
  8
Layer0$C$L0
 10
2.768715
 20
-3.893738
 11
2.757386
 21
-3.905068
  0
LINE
  8
Layer0$C$L0
 10
2.829306
 20
-3.833148
 11
2.787976
 21
-3.874477
  0
LINE
  8
Layer0$C$L0
 10
2.746022
 20
-3.895218
 11
2.736172
 21
-3.905068
  0
LINE
  8
Layer0$C$L0
 10
2.829306
 20
-3.811934
 11
2.789456
 21
-3.851783
  0
LINE
  8
Layer0$C$L0
 10
2.724808
 20
-3.895218
 11
2.714959
 21
-3.905068
  0
LINE
  8
Layer0$C$L0
 10
2.814707
 20
-3.805319
 11
2.788428
 21
-3.831599
  0
LINE
  8
Layer0$C$L0
 10
2.707156
 20
-3.891659
 11
2.694058
 21
-3.904755
  0
LINE
  8
Layer0$C$L0
 10
2.793496
 20
-3.805319
 11
2.778475
 21
-3.820338
  0
LINE
  8
Layer0$C$L0
 10
2.829329
 20
-3.769484
 11
2.818722
 21
-3.780091
  0
LINE
  8
Layer0$C$L0
 10
2.696217
 20
-3.881383
 11
2.678185
 21
-3.899415
  0
LINE
  8
Layer0$C$L0
 10
2.772282
 20
-3.805319
 11
2.759469
 21
-3.818131
  0
LINE
  8
Layer0$C$L0
 10
2.829121
 20
-3.748479
 11
2.797509
 21
-3.780091
  0
LINE
  8
Layer0$C$L0
 10
2.691313
 20
-3.865075
 11
2.665957
 21
-3.890430
  0
LINE
  8
Layer0$C$L0
 10
2.751069
 20
-3.805319
 11
2.744494
 21
-3.811893
  0
LINE
  8
Layer0$C$L0
 10
2.823937
 20
-3.732450
 11
2.789530
 21
-3.766857
  0
LINE
  8
Layer0$C$L0
 10
2.691313
 20
-3.843861
 11
2.657082
 21
-3.878093
  0
LINE
  8
Layer0$C$L0
 10
2.815054
 20
-3.720119
 11
2.789530
 21
-3.745644
  0
LINE
  8
Layer0$C$L0
 10
2.691313
 20
-3.822649
 11
2.652028
 21
-3.861933
  0
LINE
  8
Layer0$C$L0
 10
2.802943
 20
-3.711019
 11
2.784802
 21
-3.729159
  0
LINE
  8
Layer0$C$L0
 10
2.691313
 20
-3.801435
 11
2.651564
 21
-3.841184
  0
LINE
  8
Layer0$C$L0
 10
2.786831
 20
-3.705917
 11
2.773863
 21
-3.718884
  0
LINE
  8
Layer0$C$L0
 10
2.691313
 20
-3.780221
 11
2.651564
 21
-3.819971
  0
LINE
  8
Layer0$C$L0
 10
2.766169
 20
-3.705366
 11
2.756472
 21
-3.715063
  0
LINE
  8
Layer0$C$L0
 10
2.691313
 20
-3.759009
 11
2.651564
 21
-3.798757
  0
LINE
  8
Layer0$C$L0
 10
2.744956
 20
-3.705366
 11
2.735259
 21
-3.715063
  0
LINE
  8
Layer0$C$L0
 10
2.693041
 20
-3.736066
 11
2.651564
 21
-3.777544
  0
LINE
  8
Layer0$C$L0
 10
2.723742
 20
-3.705366
 11
2.712304
 21
-3.716805
  0
LINE
  8
Layer0$C$L0
 10
2.702528
 20
-3.705366
 11
2.651564
 21
-3.756331
  0
LINE
  8
Layer0$C$L0
 10
2.670891
 20
-3.715790
 11
2.662028
 21
-3.724653
  0
ENDBLK
  8
Layer0$C$L0
  0
BLOCK
  8
Layer0$C$L0
  2
*X1
 70
     1
 10
0.000000
 20
0.000000
  0
LINE
  8
Layer0$C$L0
 10
3.002141
 20
-3.904974
 11
3.047213
 21
-3.859901
  0
LINE
  8
Layer0$C$L0
 10
3.047554
 20
-3.838345
 11
2.980584
 21
-3.905316
  0
LINE
  8
Layer0$C$L0
 10
2.969573
 20
-3.895113
 11
2.959370
 21
-3.905316
  0
LINE
  8
Layer0$C$L0
 10
3.047554
 20
-3.817132
 11
3.007353
 21
-3.857335
  0
LINE
  8
Layer0$C$L0
 10
2.948361
 20
-3.895113
 11
2.938157
 21
-3.905316
  0
LINE
  8
Layer0$C$L0
 10
3.047554
 20
-3.795919
 11
3.007353
 21
-3.836121
  0
LINE
  8
Layer0$C$L0
 10
2.928895
 20
-3.893364
 11
2.917252
 21
-3.905007
  0
LINE
  8
Layer0$C$L0
 10
3.047554
 20
-3.774705
 11
3.007353
 21
-3.814909
  0
LINE
  8
Layer0$C$L0
 10
2.916499
 20
-3.884548
 11
2.899769
 21
-3.901276
  0
LINE
  8
Layer0$C$L0
 10
3.047417
 20
-3.753631
 11
3.007353
 21
-3.793695
  0
LINE
  8
Layer0$C$L0
 10
2.909874
 20
-3.869959
 11
2.886782
 21
-3.893052
  0
LINE
  8
Layer0$C$L0
 10
3.043631
 20
-3.736204
 11
3.007353
 21
-3.772481
  0
LINE
  8
Layer0$C$L0
 10
2.909562
 20
-3.849059
 11
2.877011
 21
-3.881609
  0
LINE
  8
Layer0$C$L0
 10
3.035656
 20
-3.722965
 11
3.007353
 21
-3.751269
  0
LINE
  8
Layer0$C$L0
 10
2.909562
 20
-3.827846
 11
2.870823
 21
-3.866582
  0
LINE
  8
Layer0$C$L0
 10
3.024327
 20
-3.713080
 11
3.004681
 21
-3.732727
  0
LINE
  8
Layer0$C$L0
 10
2.909562
 20
-3.806633
 11
2.869458
 21
-3.846735
  0
LINE
  8
Layer0$C$L0
 10
3.009432
 20
-3.706762
 11
2.995169
 21
-3.721025
  0
LINE
  8
Layer0$C$L0
 10
2.909562
 20
-3.785420
 11
2.869458
 21
-3.825522
  0
LINE
  8
Layer0$C$L0
 10
2.989722
 20
-3.705260
 11
2.979653
 21
-3.715328
  0
LINE
  8
Layer0$C$L0
 10
2.909562
 20
-3.764206
 11
2.869458
 21
-3.804308
  0
LINE
  8
Layer0$C$L0
 10
2.968506
 20
-3.705260
 11
2.958457
 21
-3.715310
  0
LINE
  8
Layer0$C$L0
 10
2.909367
 20
-3.743186
 11
2.869458
 21
-3.783095
  0
LINE
  8
Layer0$C$L0
 10
2.947295
 20
-3.705260
 11
2.937424
 21
-3.715129
  0
LINE
  8
Layer0$C$L0
 10
2.926081
 20
-3.705260
 11
2.869458
 21
-3.761882
  0
LINE
  8
Layer0$C$L0
 10
2.901225
 20
-3.708903
 11
2.873141
 21
-3.736986
  0
ENDBLK
  8
Layer0$C$L0
  0
BLOCK
  8
Layer0$C$L0
  2
*X2
 70
     1
 10
0.000000
 20
0.000000
  0
LINE
  8
Layer0$C$L0
 10
3.226454
 20
-3.904104
 11
3.264344
 21
-3.866215
  0
LINE
  8
Layer0$C$L0
 10
3.265450
 20
-3.843896
 11
3.204136
 21
-3.905210
  0
LINE
  8
Layer0$C$L0
 10
3.192772
 20
-3.895360
 11
3.182923
 21
-3.905210
  0
LINE
  8
Layer0$C$L0
 10
3.265450
 20
-3.822683
 11
3.225600
 21
-3.862532
  0
LINE
  8
Layer0$C$L0
 10
3.171559
 20
-3.895360
 11
3.161709
 21
-3.905210
  0
LINE
  8
Layer0$C$L0
 10
3.265450
 20
-3.801469
 11
3.225600
 21
-3.841319
  0
LINE
  8
Layer0$C$L0
 10
3.151062
 20
-3.894644
 11
3.140496
 21
-3.905210
  0
LINE
  8
Layer0$C$L0
 10
3.265450
 20
-3.780257
 11
3.225600
 21
-3.820106
  0
LINE
  8
Layer0$C$L0
 10
3.137179
 20
-3.887315
 11
3.121865
 21
-3.902628
  0
LINE
  8
Layer0$C$L0
 10
3.265450
 20
-3.759043
 11
3.225600
 21
-3.798892
  0
LINE
  8
Layer0$C$L0
 10
3.128859
 20
-3.874422
 11
3.107789
 21
-3.895490
  0
LINE
  8
Layer0$C$L0
 10
3.265450
 20
-3.737830
 11
3.225600
 21
-3.777679
  0
LINE
  8
Layer0$C$L0
 10
3.127457
 20
-3.854610
 11
3.097178
 21
-3.884889
  0
LINE
  8
Layer0$C$L0
 10
3.265450
 20
-3.716617
 11
3.225600
 21
-3.756466
  0
LINE
  8
Layer0$C$L0
 10
3.127457
 20
-3.833397
 11
3.090044
 21
-3.870809
  0
LINE
  8
Layer0$C$L0
 10
3.255597
 20
-3.705256
 11
3.225600
 21
-3.735253
  0
LINE
  8
Layer0$C$L0
 10
3.127457
 20
-3.812184
 11
3.087353
 21
-3.852286
  0
LINE
  8
Layer0$C$L0
 10
3.234383
 20
-3.705256
 11
3.225600
 21
-3.714039
  0
LINE
  8
Layer0$C$L0
 10
3.127457
 20
-3.790970
 11
3.087353
 21
-3.831073
  0
LINE
  8
Layer0$C$L0
 10
3.127457
 20
-3.769758
 11
3.087353
 21
-3.809860
  0
LINE
  8
Layer0$C$L0
 10
3.127457
 20
-3.748544
 11
3.087353
 21
-3.788646
  0
LINE
  8
Layer0$C$L0
 10
3.127457
 20
-3.727331
 11
3.087353
 21
-3.767434
  0
LINE
  8
Layer0$C$L0
 10
3.127457
 20
-3.706118
 11
3.087353
 21
-3.746220
  0
LINE
  8
Layer0$C$L0
 10
3.107047
 20
-3.705314
 11
3.087353
 21
-3.725007
  0
ENDBLK
  8
Layer0$C$L0
  0
BLOCK
  8
Layer0$C$L0
  2
*X3
 70
     1
 10
0.000000
 20
0.000000
  0
LINE
  8
Layer0$C$L0
 10
3.465769
 20
-3.905206
 11
3.475718
 21
-3.895257
  0
LINE
  8
Layer0$C$L0
 10
3.454506
 20
-3.895257
 11
3.444556
 21
-3.905206
  0
LINE
  8
Layer0$C$L0
 10
3.423342
 20
-3.905206
 11
3.433293
 21
-3.895257
  0
LINE
  8
Layer0$C$L0
 10
3.412079
 20
-3.895257
 11
3.402129
 21
-3.905206
  0
LINE
  8
Layer0$C$L0
 10
3.380917
 20
-3.905206
 11
3.390866
 21
-3.895257
  0
LINE
  8
Layer0$C$L0
 10
3.369652
 20
-3.895257
 11
3.359704
 21
-3.905206
  0
LINE
  8
Layer0$C$L0
 10
3.338490
 20
-3.905206
 11
3.348439
 21
-3.895257
  0
LINE
  8
Layer0$C$L0
 10
3.345553
 20
-3.876929
 11
3.317276
 21
-3.905206
  0
LINE
  8
Layer0$C$L0
 10
3.305352
 20
-3.895918
 11
3.345553
 21
-3.855716
  0
LINE
  8
Layer0$C$L0
 10
3.345553
 20
-3.834503
 11
3.305352
 21
-3.874706
  0
LINE
  8
Layer0$C$L0
 10
3.305352
 20
-3.853492
 11
3.345553
 21
-3.813289
  0
LINE
  8
Layer0$C$L0
 10
3.345553
 20
-3.792077
 11
3.305352
 21
-3.832279
  0
LINE
  8
Layer0$C$L0
 10
3.305352
 20
-3.811066
 11
3.345553
 21
-3.770863
  0
LINE
  8
Layer0$C$L0
 10
3.345553
 20
-3.749650
 11
3.305352
 21
-3.789853
  0
LINE
  8
Layer0$C$L0
 10
3.305352
 20
-3.768639
 11
3.345553
 21
-3.728437
  0
LINE
  8
Layer0$C$L0
 10
3.345553
 20
-3.707223
 11
3.305352
 21
-3.747427
  0
LINE
  8
Layer0$C$L0
 10
3.305352
 20
-3.726213
 11
3.326355
 21
-3.705208
  0
ENDBLK
  8
Layer0$C$L0
  0
BLOCK
  8
Layer0$C$L0
  2
*X4
 70
     1
 10
0.000000
 20
0.000000
  0
LINE
  8
Layer0$C$L0
 10
3.652379
 20
-3.905273
 11
3.701457
 21
-3.856196
  0
LINE
  8
Layer0$C$L0
 10
3.643530
 20
-3.892909
 11
3.631087
 21
-3.905352
  0
LINE
  8
Layer0$C$L0
 10
3.701592
 20
-3.834846
 11
3.659148
 21
-3.877290
  0
LINE
  8
Layer0$C$L0
 10
3.620076
 20
-3.895150
 11
3.609873
 21
-3.905352
  0
LINE
  8
Layer0$C$L0
 10
3.701592
 20
-3.813632
 11
3.661389
 21
-3.853836
  0
LINE
  8
Layer0$C$L0
 10
3.598862
 20
-3.895150
 11
3.588660
 21
-3.905352
  0
LINE
  8
Layer0$C$L0
 10
3.701592
 20
-3.792420
 11
3.661389
 21
-3.832622
  0
LINE
  8
Layer0$C$L0
 10
3.577649
 20
-3.895150
 11
3.567446
 21
-3.905352
  0
LINE
  8
Layer0$C$L0
 10
3.701592
 20
-3.771206
 11
3.661389
 21
-3.811409
  0
LINE
  8
Layer0$C$L0
 10
3.563448
 20
-3.888137
 11
3.546233
 21
-3.905352
  0
LINE
  8
Layer0$C$L0
 10
3.701155
 20
-3.750432
 11
3.661389
 21
-3.790196
  0
LINE
  8
Layer0$C$L0
 10
3.563448
 20
-3.866924
 11
3.525019
 21
-3.905352
  0
LINE
  8
Layer0$C$L0
 10
3.696572
 20
-3.733801
 11
3.661389
 21
-3.768982
  0
LINE
  8
Layer0$C$L0
 10
3.563448
 20
-3.845711
 11
3.523598
 21
-3.885561
  0
LINE
  8
Layer0$C$L0
 10
3.688036
 20
-3.721121
 11
3.661389
 21
-3.747770
  0
LINE
  8
Layer0$C$L0
 10
3.563448
 20
-3.824498
 11
3.523598
 21
-3.864347
  0
LINE
  8
Layer0$C$L0
 10
3.676144
 20
-3.711802
 11
3.657561
 21
-3.730385
  0
LINE
  8
Layer0$C$L0
 10
3.563448
 20
-3.803285
 11
3.523598
 21
-3.843133
  0
LINE
  8
Layer0$C$L0
 10
3.660727
 20
-3.706005
 11
3.647105
 21
-3.719629
  0
LINE
  8
Layer0$C$L0
 10
3.563448
 20
-3.782072
 11
3.523598
 21
-3.821921
  0
LINE
  8
Layer0$C$L0
 10
3.640223
 20
-3.705297
 11
3.630173
 21
-3.715347
  0
LINE
  8
Layer0$C$L0
 10
3.563448
 20
-3.760858
 11
3.523598
 21
-3.800707
  0
LINE
  8
Layer0$C$L0
 10
3.619009
 20
-3.705297
 11
3.608960
 21
-3.715347
  0
LINE
  8
Layer0$C$L0
 10
3.563448
 20
-3.739645
 11
3.523598
 21
-3.779494
  0
LINE
  8
Layer0$C$L0
 10
3.597796
 20
-3.705297
 11
3.587746
 21
-3.715347
  0
LINE
  8
Layer0$C$L0
 10
3.563448
 20
-3.718432
 11
3.523598
 21
-3.758281
  0
LINE
  8
Layer0$C$L0
 10
3.576582
 20
-3.705297
 11
3.566533
 21
-3.715347
  0
LINE
  8
Layer0$C$L0
 10
3.555371
 20
-3.705297
 11
3.523598
 21
-3.737068
  0
LINE
  8
Layer0$C$L0
 10
3.534157
 20
-3.705297
 11
3.523598
 21
-3.715855
  0
ENDBLK
  8
Layer0$C$L0
  0
BLOCK
  8
Layer0$C$L0
  2
*X5
 70
     1
 10
0.000000
 20
0.000000
  0
LINE
  8
Layer0$C$L0
 10
2.475818
 20
-3.904227
 11
2.475111
 21
-3.904934
  0
LINE
  8
Layer0$C$L0
 10
2.575819
 20
-3.804227
 11
2.575111
 21
-3.804935
  0
LINE
  8
Layer0$C$L0
 10
2.475818
 20
-3.883014
 11
2.453897
 21
-3.904934
  0
LINE
  8
Layer0$C$L0
 10
2.575819
 20
-3.783013
 11
2.553897
 21
-3.804935
  0
LINE
  8
Layer0$C$L0
 10
2.475818
 20
-3.861800
 11
2.432683
 21
-3.904934
  0
LINE
  8
Layer0$C$L0
 10
2.575819
 20
-3.761801
 11
2.532684
 21
-3.804935
  0
LINE
  8
Layer0$C$L0
 10
2.475818
 20
-3.840588
 11
2.411472
 21
-3.904934
  0
LINE
  8
Layer0$C$L0
 10
2.575819
 20
-3.740587
 11
2.511470
 21
-3.804935
  0
LINE
  8
Layer0$C$L0
 10
2.475818
 20
-3.819374
 11
2.390258
 21
-3.904934
  0
LINE
  8
Layer0$C$L0
 10
2.575819
 20
-3.719374
 11
2.490259
 21
-3.804935
  0
LINE
  8
Layer0$C$L0
 10
2.569250
 20
-3.704729
 11
2.369045
 21
-3.904934
  0
LINE
  8
Layer0$C$L0
 10
2.548036
 20
-3.704729
 11
2.499385
 21
-3.753380
  0
LINE
  8
Layer0$C$L0
 10
2.526823
 20
-3.704729
 11
2.489240
 21
-3.742311
  0
LINE
  8
Layer0$C$L0
 10
2.505609
 20
-3.704729
 11
2.479095
 21
-3.731244
  0
LINE
  8
Layer0$C$L0
 10
2.484397
 20
-3.704729
 11
2.468950
 21
-3.720176
  0
LINE
  8
Layer0$C$L0
 10
2.475763
 20
-3.692150
 11
2.458805
 21
-3.709108
  0
LINE
  8
Layer0$C$L0
 10
2.475763
 20
-3.670937
 11
2.448659
 21
-3.698041
  0
LINE
  8
Layer0$C$L0
 10
2.475763
 20
-3.649724
 11
2.438514
 21
-3.686972
  0
LINE
  8
Layer0$C$L0
 10
2.475763
 20
-3.628510
 11
2.428367
 21
-3.675905
  0
LINE
  8
Layer0$C$L0
 10
2.475763
 20
-3.607298
 11
2.418222
 21
-3.664838
  0
LINE
  8
Layer0$C$L0
 10
2.457174
 20
-3.604674
 11
2.408077
 21
-3.653769
  0
LINE
  8
Layer0$C$L0
 10
2.435960
 20
-3.604674
 11
2.397932
 21
-3.642702
  0
LINE
  8
Layer0$C$L0
 10
2.414747
 20
-3.604674
 11
2.387786
 21
-3.631634
  0
LINE
  8
Layer0$C$L0
 10
2.393533
 20
-3.604674
 11
2.377641
 21
-3.620566
  0
LINE
  8
Layer0$C$L0
 10
2.372320
 20
-3.604674
 11
2.367496
 21
-3.609499
  0
ENDBLK
  8
Layer0$C$L0
  0
BLOCK
  8
Layer0$C$L0
  2
*X6
 70
     1
 10
0.000000
 20
0.000000
  0
LINE
  8
Layer0$C$L0
 10
2.405712
 20
-3.804627
 11
2.425512
 21
-3.784828
  0
LINE
  8
Layer0$C$L0
 10
2.425512
 20
-3.763615
 11
2.384498
 21
-3.804627
  0
LINE
  8
Layer0$C$L0
 10
2.363286
 20
-3.804627
 11
2.425512
 21
-3.742402
  0
LINE
  8
Layer0$C$L0
 10
2.425512
 20
-3.721188
 11
2.342073
 21
-3.804627
  0
LINE
  8
Layer0$C$L0
 10
2.320859
 20
-3.804627
 11
2.420711
 21
-3.704776
  0
LINE
  8
Layer0$C$L0
 10
2.399498
 20
-3.704776
 11
2.299646
 21
-3.804627
  0
LINE
  8
Layer0$C$L0
 10
2.278432
 20
-3.804627
 11
2.378284
 21
-3.704776
  0
LINE
  8
Layer0$C$L0
 10
2.357070
 20
-3.704776
 11
2.263298
 21
-3.798550
  0
LINE
  8
Layer0$C$L0
 10
2.263298
 20
-3.777336
 11
2.335857
 21
-3.704776
  0
LINE
  8
Layer0$C$L0
 10
2.314643
 20
-3.704776
 11
2.263298
 21
-3.756124
  0
LINE
  8
Layer0$C$L0
 10
2.263298
 20
-3.734910
 11
2.293432
 21
-3.704776
  0
LINE
  8
Layer0$C$L0
 10
2.272218
 20
-3.704776
 11
2.263298
 21
-3.713696
  0
ENDBLK
  8
Layer0$C$L0
  0
BLOCK
  8
Layer0$C$L0
  2
Cadra_attr_2
 70
     2
 10
0.000000
 20
0.000000
  0
POINT
  8
Layer0$C$L0
 10
-8.099836
 20
5.128906
  0
ATTDEF
  8
Layer0$C$L0
 10
-8.099836
 20
5.128906
 40
0.156000
  1
HP7596  -07.718  05.219  180
100
AcDbAttributeDefinition
  3

  2
3
 70
     0
  0
ENDBLK
  8
Layer0$C$L0
  0
BLOCK
  8
Layer0$C$L0
  2
Cadra_attr_1
 70
     2
 10
0.000000
 20
0.000000
  0
POINT
  8
Layer0$C$L0
 10
7.650164
 20
-5.026094
  0
ATTDEF
  8
Layer0$C$L0
 10
7.650164
 20
-5.026094
 40
0.156000
  1
HP7550  08.032  -04.936  00
100
AcDbAttributeDefinition
  3

  2
1
 70
     0
  0
ENDBLK
  8
Layer0$C$L0
  0
BLOCK
  8
Layer0$C$L0
  2
Cadra_attr_0
 70
     2
 10
0.000000
 20
0.000000
  0
POINT
  8
Layer0$C$L0
 10
7.650164
 20
-5.371094
  0
ATTDEF
  8
Layer0$C$L0
 10
7.650164
 20
-5.371094
 40
0.156000
  1
HP7585  08.032  -05.281  00
100
AcDbAttributeDefinition
  3

  2
2
 70
     0
  0
ENDBLK
  8
Layer0$C$L0
  0
BLOCK
  8
Layer0$C$L0
  2
BP
 70
     0
 10
0.000000
 20
0.000000
  0
POINT
  8
Layer0$C$L0
 10
7.275164
 20
4.816406
  0
INSERT
  8
Layer0$C$L0
 66
     1
  2
Cadra_attr_0
 10
0.000000
 20
0.000000
  0
ATTRIB
  8
Layer0$C$L0
 10
7.650164
 20
-5.371094
 40
0.156000
  1
HP7585  08.032  -05.281  00
100
AcDbAttribute
  2
2
 70
     1
  0
SEQEND
  8
Layer0$C$L0
  0
INSERT
  8
Layer0$C$L0
 66
     1
  2
Cadra_attr_1
 10
0.000000
 20
0.000000
  0
ATTRIB
  8
Layer0$C$L0
 10
7.650164
 20
-5.026094
 40
0.156000
  1
HP7550  08.032  -04.936  00
100
AcDbAttribute
  2
1
 70
     1
  0
SEQEND
  8
Layer0$C$L0
  0
INSERT
  8
Layer0$C$L0
 66
     1
  2
Cadra_attr_2
 10
0.000000
 20
0.000000
  0
ATTRIB
  8
Layer0$C$L0
 10
-8.099836
 20
5.128906
 40
0.156000
  1
HP7596  -07.718  05.219  180
100
AcDbAttribute
  2
3
 70
     1
  0
SEQEND
  8
Layer0$C$L0
  0
LINE
  8
Layer0$C$L0
 10
-8.038836
 20
4.816406
 11
7.275164
 21
4.816406
  0
LINE
  8
Layer0$C$L0
 10
-8.038836
 20
4.816406
 11
-8.038836
 21
-4.996094
  0
LINE
  8
Layer0$C$L0
 10
7.273163
 20
-4.996094
 11
-8.038836
 21
-4.996094
  0
LINE
  8
Layer0$C$L0
 10
7.275164
 20
4.816406
 11
7.275164
 21
-4.996094
  0
INSERT
  8
Layer0$C$L0
  2
*X0
 10
0.000000
 20
0.000000
  0
INSERT
  8
Layer0$C$L0
  2
*X1
 10
0.000000
 20
0.000000
  0
INSERT
  8
Layer0$C$L0
  2
*X2
 10
0.000000
 20
0.000000
  0
INSERT
  8
Layer0$C$L0
  2
*X3
 10
0.000000
 20
0.000000
  0
INSERT
  8
Layer0$C$L0
  2
*X4
 10
0.000000
 20
0.000000
  0
INSERT
  8
Layer0$C$L0
  2
*X5
 10
0.000000
 20
0.000000
  0
INSERT
  8
Layer0$C$L0
  2
*X6
 10
0.000000
 20
0.000000
  0
TEXT
  8
Layer0$C$L0
 10
4.904195
 20
-3.714705
 40
4.687500E-02
  1
SPECIFIED: .XXXX%%p.0005;, .XXX%%p.005;, .XX%%p.01;,
 72
     5
 11
7.047911
 21
-3.714705
  0
TEXT
  8
Layer0$C$L0
 10
4.904195
 20
-3.785017
 40
4.687500E-02
  1
.X%%p.02;  X/X%%p1/32
 72
     5
 11
5.688536
 21
-3.785017
  0
TEXT
  8
Layer0$C$L0
 10
2.295311
 20
-4.743524
 40
4.687500E-02
  1
DESCRIPTION
 72
     5
 11
2.798402
 21
-4.743524
  0
TEXT
  8
Layer0$C$L0
 10
2.295312
 20
-4.428043
 40
4.687500E-02
  1
CHECKED BY:
 72
     5
 11
2.798403
 21
-4.428043
  0
TEXT
  8
Layer0$C$L0
 10
2.295311
 20
-4.094984
 40
4.687500E-02
  1
DRAWN BY:
 72
     5
 11
2.704652
 21
-4.094984
  0
TEXT
  8
Layer0$C$L0
 10
5.403864
 20
-4.743524
 40
4.687500E-02
  1
IDENTIFICATION NO. & REVISION
 72
     5
 11
6.750705
 21
-4.743524
  0
TEXT
  8
Layer0$C$L0
 10
4.910363
 20
-3.634680
 40
4.687500E-02
  1
TOLERANCE TO BE APPLIED UNLESS OTHERWISE
 72
     5
 11
6.772829
 21
-3.634680
  0
TEXT
  8
Layer0$C$L0
 10
4.910363
 20
-3.860875
 40
4.687500E-02
  1
UNSPECIFIED ANGLES%%p1%%d, SPECIFIED ANGLES%%pO%%d30'
 72
     5
 11
7.007204
 21
-3.860875
  0
TEXT
  8
Layer0$C$L0
 10
4.910363
 20
-3.943888
 40
4.687500E-02
  1
DIMENSIONS APPLY AFTER PLATING
 72
     5
 11
6.304079
 21
-3.943888
  0
TEXT
  8
Layer0$C$L0
 10
4.910363
 20
-4.052533
 40
4.687500E-02
  1
ALL SURFACES TO BE 125  UNLESS OTHERWISE SPECIFIED
 72
     5
 11
7.241579
 21
-4.052533
  0
TEXT
  8
Layer0$C$L0
 10
4.910363
 20
-4.184762
 40
4.687500E-02
  1
BREAK ALL SHARP EDGES
 72
     5
 11
5.882204
 21
-4.184762
  0
TEXT
  8
Layer0$C$L0
 10
4.830262
 20
-4.614559
 40
6.300000E-02
  1
REFDOC:
 72
     5
 11
5.254416
 21
-4.614559
  0
TEXT
  8
Layer0$C$L0
 10
4.910363
 20
-4.259776
 40
4.687500E-02
  1
THIS DRAWING AND ALL INFORMATION THERE ON IS THE
 72
     5
 11
7.147829
 21
-4.259776
  0
TEXT
  8
Layer0$C$L0
 10
4.910363
 20
-4.330089
 40
4.687500E-02
  1
PROPERTY OF GOULD INC. AND IS SUBJECT TO RETURN ON
 72
     5
 11
7.241579
 21
-4.330089
  0
TEXT
  8
Layer0$C$L0
 10
4.910363
 20
-4.400401
 40
4.687500E-02
  1
DEMAND.  THIS INFORMATION IS CONFIDENTIAL AND MUST
 72
     5
 11
7.241579
 21
-4.400401
  0
TEXT
  8
Layer0$C$L0
 10
4.910363
 20
-4.470714
 40
4.687500E-02
  1
NOT BE MADE PUBLIC OR COPIED UNLESS AUTHORIZED.
 72
     5
 11
7.100954
 21
-4.470714
  0
TEXT
  8
Layer0$C$L0
 10
4.139473
 20
-4.088816
 40
4.687500E-02
  1
INIT. REL.
 72
     5
 11
4.595689
 21
-4.088816
  0
TEXT
  8
Layer0$C$L0
 10
4.268996
 20
-4.577552
 40
6.300000E-02
  1
NONE
 72
     5
 11
4.504150
 21
-4.577552
  0
TEXT
  8
Layer0$C$L0
 10
4.164145
 20
-4.421875
 40
4.687500E-02
  1
SCALE:
 72
     5
 11
4.432860
 21
-4.421875
  0
TEXT
  8
Layer0$C$L0
 10
3.621381
 20
-4.421875
 40
4.687500E-02
  1
DATE:
 72
     5
 11
3.843222
 21
-4.421875
  0
TEXT
  8
Layer0$C$L0
 10
3.756149
 20
-3.835268
 40
4.687500E-02
  1
P.O. BOX 729
 72
     5
 11
4.306114
 21
-3.835268
  0
TEXT
  8
Layer0$C$L0
 10
3.760131
 20
-3.906955
 40
4.687500E-02
  1
MARBLE FALLS, TX 78654
 72
     5
 11
4.778847
 21
-3.906955
  0
TEXT
  8
Layer0$C$L0
 10
3.615213
 20
-4.094984
 40
4.687500E-02
  1
DATE:
 72
     5
 11
3.837054
 21
-4.094984
  0
TEXT
  8
Layer0$C$L0
 10
3.752166
 20
-3.763582
 40
4.687500E-02
  1
GOULD INC.
 72
     5
 11
4.208382
 21
-3.763582
  0
TEXT
  8
Layer0$C$L0
 10
2.270640
 20
-3.996694
 40
6.000000E-02
  1
CIRCUIT PROTECTION DIV.
 72
     5
 11
3.634596
 21
-3.996694
  0
POINT
  8
Layer0$C$L0
 10
5.286677
 20
-4.583059
  0
LINE
  8
Layer0$C$L0
 10
2.234144
 20
-4.346012
 11
4.799423
 21
-4.346012
  0
LINE
  8
Layer0$C$L0
 10
4.799423
 20
-4.502878
 11
7.275164
 21
-4.502878
  0
LINE
  8
Layer0$C$L0
 10
2.234144
 20
-3.559210
 11
7.275164
 21
-3.559210
  0
LINE
  8
Layer0$C$L0
 10
5.373025
 20
-4.996094
 11
5.373025
 21
-4.669819
  0
LINE
  8
Layer0$C$L0
 10
2.234144
 20
-4.669819
 11
7.275164
 21
-4.669819
  0
LINE
  8
Layer0$C$L0
 10
4.133305
 20
-4.669819
 11
4.133305
 21
-4.022204
  0
LINE
  8
Layer0$C$L0
 10
4.799423
 20
-4.669819
 11
4.799423
 21
-3.559210
  0
LINE
  8
Layer0$C$L0
 10
2.234144
 20
-4.022204
 11
4.799423
 21
-4.022204
  0
LINE
  8
Layer0$C$L0
 10
2.234144
 20
-4.996094
 11
2.234144
 21
-3.559210
  0
LINE
  8
Layer0$C$L0
 10
2.263149
 20
-3.704764
 11
2.425649
 21
-3.704764
  0
LINE
  8
Layer0$C$L0
 10
2.425649
 20
-3.704764
 11
2.425649
 21
-3.804765
  0
LINE
  8
Layer0$C$L0
 10
2.425649
 20
-3.804765
 11
2.263149
 21
-3.804765
  0
LINE
  8
Layer0$C$L0
 10
2.263149
 20
-3.804765
 11
2.263149
 21
-3.704764
  0
LINE
  8
Layer0$C$L0
 10
2.363149
 20
-3.604765
 11
2.500648
 21
-3.754765
  0
LINE
  8
Layer0$C$L0
 10
2.500648
 20
-3.754765
 11
2.363149
 21
-3.904764
  0
LINE
  8
Layer0$C$L0
 10
2.363149
 20
-3.904764
 11
2.475648
 21
-3.904764
  0
LINE
  8
Layer0$C$L0
 10
2.475648
 20
-3.904764
 11
2.475648
 21
-3.804765
  0
LINE
  8
Layer0$C$L0
 10
2.475648
 20
-3.804765
 11
2.575649
 21
-3.804765
  0
LINE
  8
Layer0$C$L0
 10
2.575649
 20
-3.804765
 11
2.575649
 21
-3.704764
  0
LINE
  8
Layer0$C$L0
 10
2.575649
 20
-3.704764
 11
2.475648
 21
-3.704764
  0
LINE
  8
Layer0$C$L0
 10
2.475648
 20
-3.704764
 11
2.475648
 21
-3.604765
  0
LINE
  8
Layer0$C$L0
 10
2.475648
 20
-3.604765
 11
2.363149
 21
-3.604765
  0
LINE
  8
Layer0$C$L0
 10
3.483460
 20
-3.895220
 11
3.483460
 21
-3.905220
  0
LINE
  8
Layer0$C$L0
 10
3.305460
 20
-3.705220
 11
3.345459
 21
-3.705220
  0
LINE
  8
Layer0$C$L0
 10
3.225461
 20
-3.705220
 11
3.265460
 21
-3.705220
  0
LINE
  8
Layer0$C$L0
 10
3.087460
 20
-3.705220
 11
3.127459
 21
-3.705220
  0
LINE
  8
Layer0$C$L0
 10
3.701460
 20
-3.855220
 11
3.701460
 21
-3.755220
  0
LINE
  8
Layer0$C$L0
 10
3.523459
 20
-3.905220
 11
3.523459
 21
-3.705220
  0
LINE
  8
Layer0$C$L0
 10
3.661459
 20
-3.865220
 11
3.661459
 21
-3.745220
  0
LINE
  8
Layer0$C$L0
 10
3.563460
 20
-3.895220
 11
3.563460
 21
-3.715220
  0
LINE
  8
Layer0$C$L0
 10
3.523459
 20
-3.905220
 11
3.651459
 21
-3.905220
  0
LINE
  8
Layer0$C$L0
 10
3.523459
 20
-3.705220
 11
3.651459
 21
-3.705220
  0
LINE
  8
Layer0$C$L0
 10
3.563460
 20
-3.895220
 11
3.631461
 21
-3.895220
  0
LINE
  8
Layer0$C$L0
 10
3.563460
 20
-3.715220
 11
3.631461
 21
-3.715220
  0
ARC
  8
Layer0$C$L0
 10
3.651459
 20
-3.855220
 40
5.000000E-02
100
AcDbArc
 50
270.000001
 51
360.000010
  0
ARC
  8
Layer0$C$L0
 10
3.651459
 20
-3.755220
 40
5.000000E-02
100
AcDbArc
 50
0.000000
 51
90.000003
  0
ARC
  8
Layer0$C$L0
 10
3.631461
 20
-3.865220
 40
3.000000E-02
100
AcDbArc
 50
270.000001
 51
360.000010
  0
ARC
  8
Layer0$C$L0
 10
3.631461
 20
-3.745220
 40
3.000000E-02
100
AcDbArc
 50
1.001791E-05
 51
89.999989
  0
LINE
  8
Layer0$C$L0
 10
3.305460
 20
-3.905220
 11
3.305460
 21
-3.705220
  0
LINE
  8
Layer0$C$L0
 10
3.345459
 20
-3.895220
 11
3.345459
 21
-3.705220
  0
LINE
  8
Layer0$C$L0
 10
3.305460
 20
-3.905220
 11
3.483460
 21
-3.905220
  0
LINE
  8
Layer0$C$L0
 10
3.345459
 20
-3.895220
 11
3.483460
 21
-3.895220
  0
LINE
  8
Layer0$C$L0
 10
3.047459
 20
-3.855220
 11
3.047459
 21
-3.755220
  0
LINE
  8
Layer0$C$L0
 10
2.869458
 20
-3.855220
 11
2.869458
 21
-3.755220
  0
LINE
  8
Layer0$C$L0
 10
3.007460
 20
-3.865220
 11
3.007460
 21
-3.745220
  0
LINE
  8
Layer0$C$L0
 10
2.909459
 20
-3.865220
 11
2.909459
 21
-3.745220
  0
LINE
  8
Layer0$C$L0
 10
2.919459
 20
-3.905220
 11
2.997460
 21
-3.905220
  0
LINE
  8
Layer0$C$L0
 10
2.919459
 20
-3.705220
 11
2.997460
 21
-3.705220
  0
LINE
  8
Layer0$C$L0
 10
2.939457
 20
-3.895220
 11
2.977459
 21
-3.895220
  0
LINE
  8
Layer0$C$L0
 10
2.939457
 20
-3.715220
 11
2.977459
 21
-3.715220
  0
ARC
  8
Layer0$C$L0
 10
2.919459
 20
-3.855220
 40
5.000000E-02
100
AcDbArc
 50
180.000005
 51
270.000001
  0
ARC
  8
Layer0$C$L0
 10
2.997460
 20
-3.855220
 40
5.000000E-02
100
AcDbArc
 50
270.000001
 51
360.000010
  0
ARC
  8
Layer0$C$L0
 10
2.997460
 20
-3.755220
 40
5.000000E-02
100
AcDbArc
 50
0.000000
 51
90.000003
  0
ARC
  8
Layer0$C$L0
 10
2.919459
 20
-3.755220
 40
5.000000E-02
100
AcDbArc
 50
90.000003
 51
180.000005
  0
ARC
  8
Layer0$C$L0
 10
2.939457
 20
-3.865220
 40
3.000000E-02
100
AcDbArc
 50
180.000005
 51
270.000001
  0
ARC
  8
Layer0$C$L0
 10
2.977459
 20
-3.865220
 40
3.000000E-02
100
AcDbArc
 50
270.000001
 51
360.000010
  0
ARC
  8
Layer0$C$L0
 10
2.977459
 20
-3.745220
 40
3.000000E-02
100
AcDbArc
 50
1.001791E-05
 51
89.999989
  0
ARC
  8
Layer0$C$L0
 10
2.939457
 20
-3.745220
 40
3.000000E-02
100
AcDbArc
 50
90.000003
 51
180.000005
  0
ARC
  8
Layer0$C$L0
 10
2.769457
 20
-3.838220
 40
2.000000E-02
100
AcDbArc
 50
0.000000
 51
90.000003
  0
LINE
  8
Layer0$C$L0
 10
2.829459
 20
-3.855220
 11
2.829459
 21
-3.805220
  0
LINE
  8
Layer0$C$L0
 10
2.789458
 20
-3.865220
 11
2.789458
 21
-3.838220
  0
LINE
  8
Layer0$C$L0
 10
2.789458
 20
-3.780220
 11
2.829459
 21
-3.780220
  0
LINE
  8
Layer0$C$L0
 10
2.829459
 20
-3.780220
 11
2.829459
 21
-3.755220
  0
LINE
  8
Layer0$C$L0
 10
2.651457
 20
-3.855220
 11
2.651457
 21
-3.755220
  0
LINE
  8
Layer0$C$L0
 10
2.789458
 20
-3.780220
 11
2.789458
 21
-3.745220
  0
LINE
  8
Layer0$C$L0
 10
2.691458
 20
-3.865220
 11
2.691458
 21
-3.745220
  0
LINE
  8
Layer0$C$L0
 10
2.701458
 20
-3.905220
 11
2.779458
 21
-3.905220
  0
LINE
  8
Layer0$C$L0
 10
2.701458
 20
-3.705220
 11
2.779458
 21
-3.705220
  0
LINE
  8
Layer0$C$L0
 10
2.721457
 20
-3.895220
 11
2.759459
 21
-3.895220
  0
LINE
  8
Layer0$C$L0
 10
2.721457
 20
-3.715220
 11
2.759459
 21
-3.715220
  0
ARC
  8
Layer0$C$L0
 10
2.701458
 20
-3.855220
 40
5.000000E-02
100
AcDbArc
 50
180.000005
 51
270.000001
  0
ARC
  8
Layer0$C$L0
 10
2.779458
 20
-3.855220
 40
5.000000E-02
100
AcDbArc
 50
270.000001
 51
360.000010
  0
ARC
  8
Layer0$C$L0
 10
2.779458
 20
-3.755220
 40
5.000000E-02
100
AcDbArc
 50
0.000000
 51
90.000003
  0
ARC
  8
Layer0$C$L0
 10
2.701458
 20
-3.755220
 40
5.000000E-02
100
AcDbArc
 50
90.000003
 51
180.000005
  0
ARC
  8
Layer0$C$L0
 10
2.721457
 20
-3.865220
 40
3.000000E-02
100
AcDbArc
 50
180.000005
 51
270.000001
  0
ARC
  8
Layer0$C$L0
 10
2.759459
 20
-3.865220
 40
3.000000E-02
100
AcDbArc
 50
270.000001
 51
360.000010
  0
ARC
  8
Layer0$C$L0
 10
2.759459
 20
-3.745220
 40
3.000000E-02
100
AcDbArc
 50
1.001791E-05
 51
89.999989
  0
ARC
  8
Layer0$C$L0
 10
2.721457
 20
-3.745220
 40
3.000000E-02
100
AcDbArc
 50
90.000003
 51
180.000005
  0
ARC
  8
Layer0$C$L0
 10
3.195460
 20
-3.865220
 40
3.000000E-02
100
AcDbArc
 50
270.000001
 51
360.000010
  0
ARC
  8
Layer0$C$L0
 10
3.157460
 20
-3.865220
 40
3.000000E-02
100
AcDbArc
 50
180.000005
 51
270.000001
  0
ARC
  8
Layer0$C$L0
 10
3.215460
 20
-3.855220
 40
5.000000E-02
100
AcDbArc
 50
270.000001
 51
360.000010
  0
ARC
  8
Layer0$C$L0
 10
3.137459
 20
-3.855220
 40
5.000000E-02
100
AcDbArc
 50
180.000005
 51
270.000001
  0
LINE
  8
Layer0$C$L0
 10
3.157460
 20
-3.895220
 11
3.195460
 21
-3.895220
  0
LINE
  8
Layer0$C$L0
 10
3.137459
 20
-3.905220
 11
3.215460
 21
-3.905220
  0
LINE
  8
Layer0$C$L0
 10
3.127459
 20
-3.865220
 11
3.127459
 21
-3.705220
  0
LINE
  8
Layer0$C$L0
 10
3.225461
 20
-3.865220
 11
3.225461
 21
-3.705220
  0
LINE
  8
Layer0$C$L0
 10
3.087460
 20
-3.855220
 11
3.087460
 21
-3.705220
  0
LINE
  8
Layer0$C$L0
 10
3.265460
 20
-3.855220
 11
3.265460
 21
-3.705220
  0
LINE
  8
Layer0$C$L0
 10
2.744458
 20
-3.818220
 11
2.744458
 21
-3.805220
  0
LINE
  8
Layer0$C$L0
 10
2.744458
 20
-3.818220
 11
2.769457
 21
-3.818220
  0
LINE
  8
Layer0$C$L0
 10
2.744458
 20
-3.805220
 11
2.829459
 21
-3.805220
  0
LINE
  8
Layer0$C$L0
 10
5.906176
 20
-4.108618
 11
5.879105
 21
-4.061729
  0
LINE
  8
Layer0$C$L0
 10
5.906176
 20
-4.108618
 11
5.983524
 21
-3.974646
  0
POINT
  8
Layer0$C$L0
 10
7.275164
 20
4.216407
  0
LINE
  8
Layer0$C$L0
 10
7.275164
 20
4.016407
 11
7.275164
 21
4.216407
  0
LINE
  8
Layer0$C$L0
 10
6.900164
 20
4.016407
 11
6.900164
 21
4.216407
  0
LINE
  8
Layer0$C$L0
 10
6.525164
 20
4.016407
 11
6.525164
 21
4.216407
  0
LINE
  8
Layer0$C$L0
 10
4.275164
 20
4.016407
 11
4.275164
 21
4.216407
  0
LINE
  8
Layer0$C$L0
 10
3.900164
 20
4.016407
 11
3.900164
 21
4.216407
  0
LINE
  8
Layer0$C$L0
 10
3.275164
 20
4.016407
 11
3.275164
 21
4.216407
  0
LINE
  8
Layer0$C$L0
 10
2.900164
 20
4.016407
 11
2.900164
 21
4.216407
  0
LINE
  8
Layer0$C$L0
 10
2.900164
 20
4.016407
 11
7.275164
 21
4.016407
  0
POINT
  8
Layer0$C$L0
 10
7.275164
 20
4.416407
  0
LINE
  8
Layer0$C$L0
 10
7.275164
 20
4.216406
 11
7.275164
 21
4.416407
  0
LINE
  8
Layer0$C$L0
 10
6.900164
 20
4.216406
 11
6.900164
 21
4.416407
  0
LINE
  8
Layer0$C$L0
 10
6.525164
 20
4.216406
 11
6.525164
 21
4.416407
  0
LINE
  8
Layer0$C$L0
 10
4.275164
 20
4.216406
 11
4.275164
 21
4.416407
  0
LINE
  8
Layer0$C$L0
 10
3.900164
 20
4.216406
 11
3.900164
 21
4.416407
  0
LINE
  8
Layer0$C$L0
 10
3.275164
 20
4.216406
 11
3.275164
 21
4.416407
  0
LINE
  8
Layer0$C$L0
 10
2.900164
 20
4.216406
 11
2.900164
 21
4.416407
  0
LINE
  8
Layer0$C$L0
 10
2.900164
 20
4.216406
 11
7.275164
 21
4.216406
  0
POINT
  8
Layer0$C$L0
 10
7.275164
 20
4.616406
  0
LINE
  8
Layer0$C$L0
 10
7.275164
 20
4.416406
 11
7.275164
 21
4.616406
  0
LINE
  8
Layer0$C$L0
 10
6.900164
 20
4.416406
 11
6.900164
 21
4.616406
  0
LINE
  8
Layer0$C$L0
 10
6.525164
 20
4.416406
 11
6.525164
 21
4.616406
  0
LINE
  8
Layer0$C$L0
 10
4.275164
 20
4.416406
 11
4.275164
 21
4.616406
  0
LINE
  8
Layer0$C$L0
 10
3.900164
 20
4.416406
 11
3.900164
 21
4.616406
  0
LINE
  8
Layer0$C$L0
 10
3.275164
 20
4.416406
 11
3.275164
 21
4.616406
  0
LINE
  8
Layer0$C$L0
 10
2.900164
 20
4.416406
 11
2.900164
 21
4.616406
  0
LINE
  8
Layer0$C$L0
 10
2.900164
 20
4.416406
 11
7.275164
 21
4.416406
  0
TEXT
  8
Layer0$C$L0
 10
7.003843
 20
4.674885
 40
6.250000E-02
  1
CK
 72
     5
 11
7.112130
 21
4.674885
  0
TEXT
  8
Layer0$C$L0
 10
6.633849
 20
4.674703
 40
6.250000E-02
  1
BY
 72
     5
 11
6.742136
 21
4.674703
  0
TEXT
  8
Layer0$C$L0
 10
5.055025
 20
4.674885
 40
6.250000E-02
  1
DESCRIPTION
 72
     5
 11
5.725812
 21
4.674885
  0
TEXT
  8
Layer0$C$L0
 10
3.993497
 20
4.674885
 40
6.250000E-02
  1
ECO
 72
     5
 11
4.164285
 21
4.674885
  0
TEXT
  8
Layer0$C$L0
 10
3.460753
 20
4.674885
 40
6.250000E-02
  1
DATE
 72
     5
 11
3.694041
 21
4.674885
  0
TEXT
  8
Layer0$C$L0
 10
2.985812
 20
4.674885
 40
6.250000E-02
  1
REV
 72
     5
 11
3.156599
 21
4.674885
  0
LINE
  8
Layer0$C$L0
 10
7.275164
 20
4.616406
 11
7.275164
 21
4.816406
  0
LINE
  8
Layer0$C$L0
 10
6.900164
 20
4.616406
 11
6.900164
 21
4.816406
  0
LINE
  8
Layer0$C$L0
 10
6.525164
 20
4.616406
 11
6.525164
 21
4.816406
  0
LINE
  8
Layer0$C$L0
 10
4.275164
 20
4.616406
 11
4.275164
 21
4.816406
  0
LINE
  8
Layer0$C$L0
 10
3.900164
 20
4.616406
 11
3.900164
 21
4.816406
  0
LINE
  8
Layer0$C$L0
 10
3.275164
 20
4.616406
 11
3.275164
 21
4.816406
  0
LINE
  8
Layer0$C$L0
 10
2.900164
 20
4.616406
 11
2.900164
 21
4.816406
  0
LINE
  8
Layer0$C$L0
 10
2.900164
 20
4.616406
 11
7.275164
 21
4.616406
  0
ENDBLK
  8
Layer0$C$L0
  0
BLOCK
  8
Layer0$C$L0
  2
TOPSET_141
 70
     0
 10
0.000000
 20
0.000000
  0
LINE
  8
Layer0$C$L0
 10
3.524999E-02
 20
-2.035160E-02
 11
7.483698E-09
 21
-4.070319E-02
  0
LINE
  8
Layer0$C$L0
 10
-7.483698E-09
 20
-4.070319E-02
 11
-3.524999E-02
 21
-2.035160E-02
  0
LINE
  8
Layer0$C$L0
 10
-3.525000E-02
 20
-2.035159E-02
 11
-3.525000E-02
 21
2.035159E-02
  0
LINE
  8
Layer0$C$L0
 10
-3.524999E-02
 20
2.035160E-02
 11
-7.483699E-09
 21
4.070319E-02
  0
LINE
  8
Layer0$C$L0
 10
7.483699E-09
 20
4.070319E-02
 11
3.524999E-02
 21
2.035160E-02
  0
LINE
  8
Layer0$C$L0
 10
3.525000E-02
 20
2.035159E-02
 11
3.525000E-02
 21
-2.035159E-02
  0
CIRCLE
  5
3
100
AcDbEntity
  8
Layer0$C$L0
100
AcDbCircle
 10
0.000000
 20
0.000000
 40
5.050000E-02
  0
ENDBLK
  8
Layer0$C$L0
  0
ENDSEC
  0
SECTION
  2
ENTITIES
  0
TEXT
  8
Layer0$C$L0
 10
12.1847882271
 20
-4.9627614021
 40
0.1250000000
  1
ASSEMBLY, INTERMEDIATE, AND LARGE PDB
 41
0.6649733597
 72
     5
 11
15.1771683458
 21
-4.9627614021
  0
CIRCLE
  5
4
100
AcDbEntity
  8
Layer0$C$L0
100
AcDbCircle
 10
13.9619436264
 20
0.6355955005
 40
0.1870000064
  0
TEXT
  8
Layer0$C$L0
 10
13.9159435130
 20
0.5730955005
 40
0.1250000000
  1
3
 72
     5
 11
14.0079437398
 21
0.5730955005
  0
POLYLINE
  8
Layer0$C$L0
 10
0.0000000000
 20
0.0000000000
 30
0.0000000000
 66
     1
 70
     0
  0
VERTEX
  8
Layer0$C$L0
 10
15.0355573289
 20
-0.6789721539
  0
VERTEX
  8
Layer0$C$L0
 10
14.2739436328
 20
0.6355955005
  0
VERTEX
  8
Layer0$C$L0
 10
14.1489436328
 20
0.6355955005
  0
SEQEND
  8
Layer0$C$L0
  0
SOLID
  8
Layer0$C$L0
 10
14.9851898811
 20
-0.5313269150
 11
14.9325224880
 21
-0.5618405275
 12
15.0355573289
 22
-0.6789721539
 13
15.0355573289
 23
-0.6789721539
  0
POLYLINE
  8
Layer0$C$L0
 10
0.0000000000
 20
0.0000000000
 30
0.0000000000
 66
     1
 70
     0
  0
VERTEX
  8
Layer0$C$L0
 10
13.4549283981
 20
-0.6750000119
  0
VERTEX
  8
Layer0$C$L0
 10
13.6499436200
 20
0.6355955005
  0
VERTEX
  8
Layer0$C$L0
 10
13.7749436200
 20
0.6355955005
  0
SEQEND
  8
Layer0$C$L0
  0
SOLID
  8
Layer0$C$L0
 10
13.5075497362
 20
-0.5281429687
 11
13.4473444180
 21
-0.5191844812
 12
13.4549283981
 22
-0.6750000119
 13
13.4549283981
 23
-0.6750000119
  0
POLYLINE
  8
Layer0$C$L0
 10
0.0000000000
 20
0.0000000000
 30
0.0000000000
 66
     1
 70
     0
  0
VERTEX
  8
Layer0$C$L0
 10
11.7799682775
 20
-0.6750001564
  0
VERTEX
  8
Layer0$C$L0
 10
13.6499436200
 20
0.6355955005
  0
VERTEX
  8
Layer0$C$L0
 10
13.7749436200
 20
0.6355955005
  0
SEQEND
  8
Layer0$C$L0
  0
SOLID
  8
Layer0$C$L0
 10
11.9227292386
 20
-0.6121089460
 11
11.8877947833
 21
-0.5622639997
 12
11.7799682775
 22
-0.6750001564
 13
11.7799682775
 23
-0.6750001564
  0
TEXT
  8
Layer0$C$L0
 10
5.5726261139
 20
4.0236849785
 40
0.1250000000
  1
TORQUE 20-28 IN-LBS.
 72
     5
 11
8.0396263406
 21
4.0236849785
  0
TEXT
  8
Layer0$C$L0
 10
13.1464593806
 20
4.4412746159
 40
0.1250000000
  1
4/11/95
 41
0.7071493275
 72
     5
 11
13.6768213762
 21
4.4412746159
  0
TEXT
  8
Layer0$C$L0
 10
15.3075075150
 20
-2.3190829754
 40
0.1250000000
  1
P/N 66-SERIES
 72
     5
 11
16.8995077417
 21
-2.3190829754
  0
TEXT
  8
Layer0$C$L0
 10
15.3075075150
 20
-2.5060829818
 40
0.1250000000
  1
    67-SERIES
 72
     5
 11
16.8995077417
 21
-2.5060829818
  0
TEXT
  8
Layer0$C$L0
 10
15.3075075150
 20
-2.6930829883
 40
0.1250000000
  1
    68-SERIES
 72
     5
 11
16.8995077417
 21
-2.6930829883
  0
TEXT
  8
Layer0$C$L0
 10
15.3075075150
 20
-2.8800829947
 40
0.1250000000
  1
    69-SERIES
 72
     5
 11
16.8995077417
 21
-2.8800829947
  0
TEXT
  8
Layer0$C$L0
 10
15.3075075150
 20
-3.0670830011
 40
0.1250000000
  1
    8-SERIES
 72
     5
 11
16.7745077417
 21
-3.0670830011
  0
TEXT
  8
Layer0$C$L0
 10
15.3075075150
 20
-3.2540830076
 40
0.1250000000
  1
    9-SERIES
 72
     5
 11
16.7745077417
 21
-3.2540830076
  0
TEXT
  8
Layer0$C$L0
 10
2.9106633663
 20
-4.1038403511
 40
0.1250000000
  1
NOTE
 72
     5
 11
3.3776635930
 21
-4.1038403511
  0
TEXT
  8
Layer0$C$L0
 10
2.9106633663
 20
-4.2908403575
 40
0.1250000000
  1
1. MUST WITHSTAND FOR 1 SECOND, WITHOUT BREAKDOWN, THE APPLICATION
 72
     5
 11
11.1276635930
 21
-4.2908403575
  0
TEXT
  8
Layer0$C$L0
 10
2.9106633663
 20
-4.4778403640
 40
0.1250000000
  1
OF 1200V AC BETWEEN LIVE PARTS AND EXPOSED NON-CURRENT-CARRYING-
 72
     5
 11
10.8776635930
 21
-4.4778403640
  0
TEXT
  8
Layer0$C$L0
 10
2.9106633663
 20
-4.6648403704
 40
0.1250000000
  1
METAL PARTS.
 72
     5
 11
4.3776635930
 21
-4.6648403704
  0
TEXT
  8
Layer0$C$L0
 10
2.9106633663
 20
-4.8518403769
 40
0.1250000000
  1
2. FOR MULTIPLE WIDE ASSEMBLIES SEE DWG. 31B0553
 72
     5
 11
8.8776635930
 21
-4.8518403769
  0
CIRCLE
  5
5
100
AcDbEntity
  8
Layer0$C$L0
100
AcDbCircle
 10
5.2296061516
 20
4.0922889709
 40
0.1875000000
  0
TEXT
  8
Layer0$C$L0
 10
5.1724631526
 20
4.0142889693
 40
0.1560000032
  1
2
 72
     5
 11
5.2867491530
 21
4.0142889693
  0
CIRCLE
  5
6
100
AcDbEntity
  8
Layer0$C$L0
100
AcDbCircle
 10
10.7784938812
 20
0.8728708625
 40
0.1870000064
  0
TEXT
  8
Layer0$C$L0
 10
10.7213508822
 20
0.7948708609
 40
0.1560000032
  1
4
 72
     5
 11
10.8356368826
 21
0.7948708609
  0
CIRCLE
  5
7
100
AcDbEntity
  8
Layer0$C$L0
100
AcDbCircle
 10
11.7365379333
 20
0.5734820366
 40
0.1870000064
  0
TEXT
  8
Layer0$C$L0
 10
11.6793949343
 20
0.4954820350
 40
0.1560000032
  1
1
 72
     5
 11
11.7936809347
 21
0.4954820350
  0
CIRCLE
  5
8
100
AcDbEntity
  8
Layer0$C$L0
100
AcDbCircle
 10
3.3040472984
 20
2.5689086462
 40
0.2750000000
  0
LINE
  8
Layer0$C$L0
 10
3.4032793297
 20
2.3970336462
 11
3.2048152672
 21
2.3970336462
  0
LINE
  8
Layer0$C$L0
 10
3.5025114303
 20
2.5689086061
 11
3.4032793991
 21
2.3970336862
  0
LINE
  8
Layer0$C$L0
 10
3.4032793991
 20
2.7407836061
 11
3.5025114303
 21
2.5689086862
  0
LINE
  8
Layer0$C$L0
 10
3.2048152672
 20
2.7407836462
 11
3.4032793297
 21
2.7407836462
  0
LINE
  8
Layer0$C$L0
 10
3.1055831665
 20
2.5689086862
 11
3.2048151978
 21
2.7407836061
  0
LINE
  8
Layer0$C$L0
 10
3.2048151978
 20
2.3970336862
 11
3.1055831665
 21
2.5689086061
  0
CIRCLE
  5
9
100
AcDbEntity
  8
Layer0$C$L0
  6
PHANTOM
100
AcDbCircle
 10
14.680441
 20
-1.435000
 40
7.000000E-02
  0
CIRCLE
  5
a
100
AcDbEntity
  8
Layer0$C$L0
  6
PHANTOM
100
AcDbCircle
 10
14.680441
 20
-1.695000
 40
7.000000E-02
  0
CIRCLE
  5
b
100
AcDbEntity
  8
Layer0$C$L0
  6
PHANTOM
100
AcDbCircle
 10
14.680441
 20
-1.955000
 40
7.000000E-02
  0
LINE
  8
Layer0$C$L0
  6
PHANTOM
 10
14.626095
 20
-1.390881
 11
14.728119
 21
-1.383747
  0
LINE
  8
Layer0$C$L0
  6
PHANTOM
 10
14.625353
 20
-1.431031
 11
14.734442
 21
-1.423403
  0
LINE
  8
Layer0$C$L0
  6
PHANTOM
 10
14.625353
 20
-1.471129
 11
14.734442
 21
-1.463500
  0
ARC
  8
Layer0$C$L0
  6
PHANTOM
 10
14.680206
 20
-1.416244
 40
7.000000E-02
100
AcDbArc
 50
250.580817
 51
289.780720
  0
LINE
  8
Layer0$C$L0
  6
PHANTOM
 10
14.734442
 20
-1.471129
 11
14.703896
 21
-1.482114
  0
LINE
  8
Layer0$C$L0
  6
PHANTOM
 10
14.625353
 20
-1.471129
 11
14.656933
 21
-1.482262
  0
LINE
  8
Layer0$C$L0
  6
PHANTOM
 10
14.734442
 20
-1.471129
 11
14.734442
 21
-1.390457
  0
LINE
  8
Layer0$C$L0
  6
PHANTOM
 10
14.625353
 20
-1.471129
 11
14.625353
 21
-1.391812
  0
LINE
  8
Layer0$C$L0
  6
PHANTOM
 10
14.625353
 20
-1.731128
 11
14.625353
 21
-1.651812
  0
LINE
  8
Layer0$C$L0
  6
PHANTOM
 10
14.734442
 20
-1.731128
 11
14.734442
 21
-1.650458
  0
LINE
  8
Layer0$C$L0
  6
PHANTOM
 10
14.625353
 20
-1.731128
 11
14.656933
 21
-1.742262
  0
LINE
  8
Layer0$C$L0
  6
PHANTOM
 10
14.734442
 20
-1.731128
 11
14.703896
 21
-1.742114
  0
ARC
  8
Layer0$C$L0
  6
PHANTOM
 10
14.680206
 20
-1.676244
 40
7.000000E-02
100
AcDbArc
 50
250.580817
 51
289.780720
  0
LINE
  8
Layer0$C$L0
  6
PHANTOM
 10
14.625353
 20
-1.731128
 11
14.734442
 21
-1.723500
  0
LINE
  8
Layer0$C$L0
  6
PHANTOM
 10
14.625353
 20
-1.691031
 11
14.734442
 21
-1.683403
  0
LINE
  8
Layer0$C$L0
  6
PHANTOM
 10
14.626095
 20
-1.650881
 11
14.728119
 21
-1.643747
  0
LINE
  8
Layer0$C$L0
  6
PHANTOM
 10
14.626095
 20
-1.910881
 11
14.728119
 21
-1.903747
  0
LINE
  8
Layer0$C$L0
  6
PHANTOM
 10
14.625353
 20
-1.951031
 11
14.734442
 21
-1.943403
  0
LINE
  8
Layer0$C$L0
  6
PHANTOM
 10
14.625353
 20
-1.991129
 11
14.734442
 21
-1.983500
  0
ARC
  8
Layer0$C$L0
  6
PHANTOM
 10
14.680206
 20
-1.936244
 40
7.000000E-02
100
AcDbArc
 50
250.580817
 51
289.780720
  0
LINE
  8
Layer0$C$L0
  6
PHANTOM
 10
14.734442
 20
-1.991129
 11
14.703896
 21
-2.002114
  0
LINE
  8
Layer0$C$L0
  6
PHANTOM
 10
14.625353
 20
-1.991129
 11
14.656933
 21
-2.002262
  0
LINE
  8
Layer0$C$L0
  6
PHANTOM
 10
14.734442
 20
-1.991129
 11
14.734442
 21
-1.910457
  0
LINE
  8
Layer0$C$L0
  6
PHANTOM
 10
14.625353
 20
-1.991129
 11
14.625353
 21
-1.911812
  0
LINE
  8
Layer0$C$L0
  6
PHANTOM
 10
14.424353
 20
-1.991129
 11
14.424353
 21
-1.911812
  0
LINE
  8
Layer0$C$L0
  6
PHANTOM
 10
14.533442
 20
-1.991129
 11
14.533442
 21
-1.910457
  0
LINE
  8
Layer0$C$L0
  6
PHANTOM
 10
14.424353
 20
-1.991129
 11
14.455935
 21
-2.002262
  0
LINE
  8
Layer0$C$L0
  6
PHANTOM
 10
14.533442
 20
-1.991129
 11
14.502897
 21
-2.002114
  0
ARC
  8
Layer0$C$L0
  6
PHANTOM
 10
14.479208
 20
-1.936244
 40
7.000000E-02
100
AcDbArc
 50
250.580817
 51
289.780720
  0
LINE
  8
Layer0$C$L0
  6
PHANTOM
 10
14.424353
 20
-1.991129
 11
14.533442
 21
-1.983500
  0
LINE
  8
Layer0$C$L0
  6
PHANTOM
 10
14.424353
 20
-1.951031
 11
14.533442
 21
-1.943403
  0
LINE
  8
Layer0$C$L0
  6
PHANTOM
 10
14.425097
 20
-1.910881
 11
14.527119
 21
-1.903747
  0
LINE
  8
Layer0$C$L0
  6
PHANTOM
 10
14.212095
 20
-1.910881
 11
14.314119
 21
-1.903747
  0
LINE
  8
Layer0$C$L0
  6
PHANTOM
 10
14.211353
 20
-1.951031
 11
14.320442
 21
-1.943403
  0
LINE
  8
Layer0$C$L0
  6
PHANTOM
 10
14.211353
 20
-1.991129
 11
14.320442
 21
-1.983500
  0
ARC
  8
Layer0$C$L0
  6
PHANTOM
 10
14.266207
 20
-1.936244
 40
7.000000E-02
100
AcDbArc
 50
250.580817
 51
289.780720
  0
LINE
  8
Layer0$C$L0
  6
PHANTOM
 10
14.320442
 20
-1.991129
 11
14.289896
 21
-2.002114
  0
LINE
  8
Layer0$C$L0
  6
PHANTOM
 10
14.211353
 20
-1.991129
 11
14.242933
 21
-2.002262
  0
LINE
  8
Layer0$C$L0
  6
PHANTOM
 10
14.320442
 20
-1.991129
 11
14.320442
 21
-1.910457
  0
LINE
  8
Layer0$C$L0
  6
PHANTOM
 10
14.211353
 20
-1.991129
 11
14.211353
 21
-1.911812
  0
LINE
  8
Layer0$C$L0
  6
PHANTOM
 10
13.998352
 20
-1.991129
 11
13.998352
 21
-1.911812
  0
LINE
  8
Layer0$C$L0
  6
PHANTOM
 10
14.107441
 20
-1.991129
 11
14.107441
 21
-1.910457
  0
LINE
  8
Layer0$C$L0
  6
PHANTOM
 10
13.998352
 20
-1.991129
 11
14.029934
 21
-2.002262
  0
LINE
  8
Layer0$C$L0
  6
PHANTOM
 10
14.107441
 20
-1.991129
 11
14.076897
 21
-2.002114
  0
ARC
  8
Layer0$C$L0
  6
PHANTOM
 10
14.053207
 20
-1.936244
 40
7.000000E-02
100
AcDbArc
 50
250.580817
 51
289.780720
  0
LINE
  8
Layer0$C$L0
  6
PHANTOM
 10
13.998352
 20
-1.991129
 11
14.107441
 21
-1.983500
  0
LINE
  8
Layer0$C$L0
  6
PHANTOM
 10
13.998352
 20
-1.951031
 11
14.107441
 21
-1.943403
  0
LINE
  8
Layer0$C$L0
  6
PHANTOM
 10
13.999096
 20
-1.910881
 11
14.101118
 21
-1.903747
  0
LINE
  8
Layer0$C$L0
  6
PHANTOM
 10
13.786095
 20
-1.910881
 11
13.888119
 21
-1.903747
  0
LINE
  8
Layer0$C$L0
  6
PHANTOM
 10
13.785353
 20
-1.951031
 11
13.894442
 21
-1.943403
  0
LINE
  8
Layer0$C$L0
  6
PHANTOM
 10
13.785353
 20
-1.991129
 11
13.894442
 21
-1.983500
  0
ARC
  8
Layer0$C$L0
  6
PHANTOM
 10
13.840206
 20
-1.936244
 40
7.000000E-02
100
AcDbArc
 50
250.580817
 51
289.780720
  0
LINE
  8
Layer0$C$L0
  6
PHANTOM
 10
13.894442
 20
-1.991129
 11
13.863895
 21
-2.002114
  0
LINE
  8
Layer0$C$L0
  6
PHANTOM
 10
13.785353
 20
-1.991129
 11
13.816933
 21
-2.002262
  0
LINE
  8
Layer0$C$L0
  6
PHANTOM
 10
13.894442
 20
-1.991129
 11
13.894442
 21
-1.910457
  0
LINE
  8
Layer0$C$L0
  6
PHANTOM
 10
13.785353
 20
-1.991129
 11
13.785353
 21
-1.911812
  0
LINE
  8
Layer0$C$L0
  6
PHANTOM
 10
13.785353
 20
-1.731128
 11
13.785353
 21
-1.651812
  0
LINE
  8
Layer0$C$L0
  6
PHANTOM
 10
13.894442
 20
-1.731128
 11
13.894442
 21
-1.650458
  0
LINE
  8
Layer0$C$L0
  6
PHANTOM
 10
13.785353
 20
-1.731128
 11
13.816933
 21
-1.742262
  0
LINE
  8
Layer0$C$L0
  6
PHANTOM
 10
13.894442
 20
-1.731128
 11
13.863895
 21
-1.742114
  0
ARC
  8
Layer0$C$L0
  6
PHANTOM
 10
13.840206
 20
-1.676244
 40
7.000000E-02
100
AcDbArc
 50
250.580817
 51
289.780720
  0
LINE
  8
Layer0$C$L0
  6
PHANTOM
 10
13.785353
 20
-1.731128
 11
13.894442
 21
-1.723500
  0
LINE
  8
Layer0$C$L0
  6
PHANTOM
 10
13.785353
 20
-1.691031
 11
13.894442
 21
-1.683403
  0
LINE
  8
Layer0$C$L0
  6
PHANTOM
 10
13.786095
 20
-1.650881
 11
13.888119
 21
-1.643747
  0
LINE
  8
Layer0$C$L0
  6
PHANTOM
 10
13.999096
 20
-1.650881
 11
14.101118
 21
-1.643747
  0
LINE
  8
Layer0$C$L0
  6
PHANTOM
 10
13.998352
 20
-1.691031
 11
14.107441
 21
-1.683403
  0
LINE
  8
Layer0$C$L0
  6
PHANTOM
 10
13.998352
 20
-1.731128
 11
14.107441
 21
-1.723500
  0
ARC
  8
Layer0$C$L0
  6
PHANTOM
 10
14.053207
 20
-1.676244
 40
7.000000E-02
100
AcDbArc
 50
250.580817
 51
289.780720
  0
LINE
  8
Layer0$C$L0
  6
PHANTOM
 10
14.107441
 20
-1.731128
 11
14.076897
 21
-1.742114
  0
LINE
  8
Layer0$C$L0
  6
PHANTOM
 10
13.998352
 20
-1.731128
 11
14.029934
 21
-1.742262
  0
LINE
  8
Layer0$C$L0
  6
PHANTOM
 10
14.107441
 20
-1.731128
 11
14.107441
 21
-1.650458
  0
LINE
  8
Layer0$C$L0
  6
PHANTOM
 10
13.998352
 20
-1.731128
 11
13.998352
 21
-1.651812
  0
LINE
  8
Layer0$C$L0
  6
PHANTOM
 10
14.211353
 20
-1.731128
 11
14.211353
 21
-1.651812
  0
LINE
  8
Layer0$C$L0
  6
PHANTOM
 10
14.320442
 20
-1.731128
 11
14.320442
 21
-1.650458
  0
LINE
  8
Layer0$C$L0
  6
PHANTOM
 10
14.211353
 20
-1.731128
 11
14.242933
 21
-1.742262
  0
LINE
  8
Layer0$C$L0
  6
PHANTOM
 10
14.320442
 20
-1.731128
 11
14.289896
 21
-1.742114
  0
ARC
  8
Layer0$C$L0
  6
PHANTOM
 10
14.266207
 20
-1.676244
 40
7.000000E-02
100
AcDbArc
 50
250.580817
 51
289.780720
  0
LINE
  8
Layer0$C$L0
  6
PHANTOM
 10
14.211353
 20
-1.731128
 11
14.320442
 21
-1.723500
  0
LINE
  8
Layer0$C$L0
  6
PHANTOM
 10
14.211353
 20
-1.691031
 11
14.320442
 21
-1.683403
  0
LINE
  8
Layer0$C$L0
  6
PHANTOM
 10
14.212095
 20
-1.650881
 11
14.314119
 21
-1.643747
  0
LINE
  8
Layer0$C$L0
  6
PHANTOM
 10
14.425097
 20
-1.650881
 11
14.527119
 21
-1.643747
  0
LINE
  8
Layer0$C$L0
  6
PHANTOM
 10
14.424353
 20
-1.691031
 11
14.533442
 21
-1.683403
  0
LINE
  8
Layer0$C$L0
  6
PHANTOM
 10
14.424353
 20
-1.731128
 11
14.533442
 21
-1.723500
  0
ARC
  8
Layer0$C$L0
  6
PHANTOM
 10
14.479208
 20
-1.676244
 40
7.000000E-02
100
AcDbArc
 50
250.580817
 51
289.780720
  0
LINE
  8
Layer0$C$L0
  6
PHANTOM
 10
14.533442
 20
-1.731128
 11
14.502897
 21
-1.742114
  0
LINE
  8
Layer0$C$L0
  6
PHANTOM
 10
14.424353
 20
-1.731128
 11
14.455935
 21
-1.742262
  0
LINE
  8
Layer0$C$L0
  6
PHANTOM
 10
14.533442
 20
-1.731128
 11
14.533442
 21
-1.650458
  0
LINE
  8
Layer0$C$L0
  6
PHANTOM
 10
14.424353
 20
-1.731128
 11
14.424353
 21
-1.651812
  0
LINE
  8
Layer0$C$L0
  6
PHANTOM
 10
14.424353
 20
-1.471129
 11
14.424353
 21
-1.391812
  0
LINE
  8
Layer0$C$L0
  6
PHANTOM
 10
14.533442
 20
-1.471129
 11
14.533442
 21
-1.390457
  0
LINE
  8
Layer0$C$L0
  6
PHANTOM
 10
14.424353
 20
-1.471129
 11
14.455935
 21
-1.482262
  0
LINE
  8
Layer0$C$L0
  6
PHANTOM
 10
14.533442
 20
-1.471129
 11
14.502897
 21
-1.482114
  0
ARC
  8
Layer0$C$L0
  6
PHANTOM
 10
14.479208
 20
-1.416244
 40
7.000000E-02
100
AcDbArc
 50
250.580817
 51
289.780720
  0
LINE
  8
Layer0$C$L0
  6
PHANTOM
 10
14.424353
 20
-1.471129
 11
14.533442
 21
-1.463500
  0
LINE
  8
Layer0$C$L0
  6
PHANTOM
 10
14.424353
 20
-1.431031
 11
14.533442
 21
-1.423403
  0
LINE
  8
Layer0$C$L0
  6
PHANTOM
 10
14.425097
 20
-1.390881
 11
14.527119
 21
-1.383747
  0
LINE
  8
Layer0$C$L0
  6
PHANTOM
 10
14.212095
 20
-1.390881
 11
14.314119
 21
-1.383747
  0
LINE
  8
Layer0$C$L0
  6
PHANTOM
 10
14.211353
 20
-1.431031
 11
14.320442
 21
-1.423403
  0
LINE
  8
Layer0$C$L0
  6
PHANTOM
 10
14.211353
 20
-1.471129
 11
14.320442
 21
-1.463500
  0
ARC
  8
Layer0$C$L0
  6
PHANTOM
 10
14.266207
 20
-1.416244
 40
7.000000E-02
100
AcDbArc
 50
250.580817
 51
289.780720
  0
LINE
  8
Layer0$C$L0
  6
PHANTOM
 10
14.320442
 20
-1.471129
 11
14.289896
 21
-1.482114
  0
LINE
  8
Layer0$C$L0
  6
PHANTOM
 10
14.211353
 20
-1.471129
 11
14.242933
 21
-1.482262
  0
LINE
  8
Layer0$C$L0
  6
PHANTOM
 10
14.320442
 20
-1.471129
 11
14.320442
 21
-1.390457
  0
LINE
  8
Layer0$C$L0
  6
PHANTOM
 10
14.211353
 20
-1.471129
 11
14.211353
 21
-1.391812
  0
LINE
  8
Layer0$C$L0
  6
PHANTOM
 10
13.998352
 20
-1.471129
 11
13.998352
 21
-1.391812
  0
LINE
  8
Layer0$C$L0
  6
PHANTOM
 10
14.107441
 20
-1.471129
 11
14.107441
 21
-1.390457
  0
LINE
  8
Layer0$C$L0
  6
PHANTOM
 10
13.998352
 20
-1.471129
 11
14.029934
 21
-1.482262
  0
LINE
  8
Layer0$C$L0
  6
PHANTOM
 10
14.107441
 20
-1.471129
 11
14.076897
 21
-1.482114
  0
ARC
  8
Layer0$C$L0
  6
PHANTOM
 10
14.053207
 20
-1.416244
 40
7.000000E-02
100
AcDbArc
 50
250.580817
 51
289.780720
  0
LINE
  8
Layer0$C$L0
  6
PHANTOM
 10
13.998352
 20
-1.471129
 11
14.107441
 21
-1.463500
  0
LINE
  8
Layer0$C$L0
  6
PHANTOM
 10
13.998352
 20
-1.431031
 11
14.107441
 21
-1.423403
  0
LINE
  8
Layer0$C$L0
  6
PHANTOM
 10
13.999096
 20
-1.390881
 11
14.101118
 21
-1.383747
  0
LINE
  8
Layer0$C$L0
  6
PHANTOM
 10
13.786095
 20
-1.390881
 11
13.888119
 21
-1.383747
  0
LINE
  8
Layer0$C$L0
  6
PHANTOM
 10
13.785353
 20
-1.431031
 11
13.894442
 21
-1.423403
  0
LINE
  8
Layer0$C$L0
  6
PHANTOM
 10
13.785353
 20
-1.471129
 11
13.894442
 21
-1.463500
  0
ARC
  8
Layer0$C$L0
  6
PHANTOM
 10
13.840206
 20
-1.416244
 40
7.000000E-02
100
AcDbArc
 50
250.580817
 51
289.780720
  0
LINE
  8
Layer0$C$L0
  6
PHANTOM
 10
13.894442
 20
-1.471129
 11
13.863895
 21
-1.482114
  0
LINE
  8
Layer0$C$L0
  6
PHANTOM
 10
13.785353
 20
-1.471129
 11
13.816933
 21
-1.482262
  0
LINE
  8
Layer0$C$L0
  6
PHANTOM
 10
13.894442
 20
-1.471129
 11
13.894442
 21
-1.390457
  0
LINE
  8
Layer0$C$L0
  6
PHANTOM
 10
13.785353
 20
-1.471129
 11
13.785353
 21
-1.391812
  0
CIRCLE
  5
c
100
AcDbEntity
  8
Layer0$C$L0
  6
PHANTOM
100
AcDbCircle
 10
14.479443
 20
-1.955000
 40
7.000000E-02
  0
CIRCLE
  5
d
100
AcDbEntity
  8
Layer0$C$L0
  6
PHANTOM
100
AcDbCircle
 10
14.266441
 20
-1.955000
 40
7.000000E-02
  0
CIRCLE
  5
e
100
AcDbEntity
  8
Layer0$C$L0
  6
PHANTOM
100
AcDbCircle
 10
14.053442
 20
-1.955000
 40
7.000000E-02
  0
CIRCLE
  5
f
100
AcDbEntity
  8
Layer0$C$L0
  6
PHANTOM
100
AcDbCircle
 10
13.840441
 20
-1.955000
 40
7.000000E-02
  0
CIRCLE
  5
10
100
AcDbEntity
  8
Layer0$C$L0
  6
PHANTOM
100
AcDbCircle
 10
13.840441
 20
-1.695000
 40
7.000000E-02
  0
CIRCLE
  5
11
100
AcDbEntity
  8
Layer0$C$L0
  6
PHANTOM
100
AcDbCircle
 10
14.053442
 20
-1.695000
 40
7.000000E-02
  0
CIRCLE
  5
12
100
AcDbEntity
  8
Layer0$C$L0
  6
PHANTOM
100
AcDbCircle
 10
14.266441
 20
-1.695000
 40
7.000000E-02
  0
CIRCLE
  5
13
100
AcDbEntity
  8
Layer0$C$L0
  6
PHANTOM
100
AcDbCircle
 10
14.479443
 20
-1.695000
 40
7.000000E-02
  0
CIRCLE
  5
14
100
AcDbEntity
  8
Layer0$C$L0
  6
PHANTOM
100
AcDbCircle
 10
14.479443
 20
-1.435000
 40
7.000000E-02
  0
CIRCLE
  5
15
100
AcDbEntity
  8
Layer0$C$L0
  6
PHANTOM
100
AcDbCircle
 10
14.266441
 20
-1.435000
 40
7.000000E-02
  0
CIRCLE
  5
16
100
AcDbEntity
  8
Layer0$C$L0
  6
PHANTOM
100
AcDbCircle
 10
14.053442
 20
-1.435000
 40
7.000000E-02
  0
CIRCLE
  5
17
100
AcDbEntity
  8
Layer0$C$L0
  6
PHANTOM
100
AcDbCircle
 10
13.840441
 20
-1.435000
 40
7.000000E-02
  0
CIRCLE
  5
18
100
AcDbEntity
  8
Layer0$C$L0
  6
PHANTOM
100
AcDbCircle
 10
13.045441
 20
-1.435000
 40
7.000000E-02
  0
CIRCLE
  5
19
100
AcDbEntity
  8
Layer0$C$L0
  6
PHANTOM
100
AcDbCircle
 10
13.045441
 20
-1.695000
 40
7.000000E-02
  0
CIRCLE
  5
1a
100
AcDbEntity
  8
Layer0$C$L0
  6
PHANTOM
100
AcDbCircle
 10
13.045441
 20
-1.955000
 40
7.000000E-02
  0
LINE
  8
Layer0$C$L0
  6
PHANTOM
 10
12.991095
 20
-1.390881
 11
13.093119
 21
-1.383747
  0
LINE
  8
Layer0$C$L0
  6
PHANTOM
 10
12.990353
 20
-1.431031
 11
13.099442
 21
-1.423403
  0
LINE
  8
Layer0$C$L0
  6
PHANTOM
 10
12.990353
 20
-1.471129
 11
13.099442
 21
-1.463500
  0
ARC
  8
Layer0$C$L0
  6
PHANTOM
 10
13.045206
 20
-1.416244
 40
7.000000E-02
100
AcDbArc
 50
250.580817
 51
289.780720
  0
LINE
  8
Layer0$C$L0
  6
PHANTOM
 10
13.099442
 20
-1.471129
 11
13.068895
 21
-1.482114
  0
LINE
  8
Layer0$C$L0
  6
PHANTOM
 10
12.990353
 20
-1.471129
 11
13.021933
 21
-1.482262
  0
LINE
  8
Layer0$C$L0
  6
PHANTOM
 10
13.099442
 20
-1.471129
 11
13.099442
 21
-1.390457
  0
LINE
  8
Layer0$C$L0
  6
PHANTOM
 10
12.990353
 20
-1.471129
 11
12.990353
 21
-1.391812
  0
LINE
  8
Layer0$C$L0
  6
PHANTOM
 10
12.990353
 20
-1.731128
 11
12.990353
 21
-1.651812
  0
LINE
  8
Layer0$C$L0
  6
PHANTOM
 10
13.099442
 20
-1.731128
 11
13.099442
 21
-1.650458
  0
LINE
  8
Layer0$C$L0
  6
PHANTOM
 10
12.990353
 20
-1.731128
 11
13.021933
 21
-1.742262
  0
LINE
  8
Layer0$C$L0
  6
PHANTOM
 10
13.099442
 20
-1.731128
 11
13.068895
 21
-1.742114
  0
ARC
  8
Layer0$C$L0
  6
PHANTOM
 10
13.045206
 20
-1.676244
 40
7.000000E-02
100
AcDbArc
 50
250.580817
 51
289.780720
  0
LINE
  8
Layer0$C$L0
  6
PHANTOM
 10
12.990353
 20
-1.731128
 11
13.099442
 21
-1.723500
  0
LINE
  8
Layer0$C$L0
  6
PHANTOM
 10
12.990353
 20
-1.691031
 11
13.099442
 21
-1.683403
  0
LINE
  8
Layer0$C$L0
  6
PHANTOM
 10
12.991095
 20
-1.650881
 11
13.093119
 21
-1.643747
  0
LINE
  8
Layer0$C$L0
  6
PHANTOM
 10
12.991095
 20
-1.910881
 11
13.093119
 21
-1.903747
  0
LINE
  8
Layer0$C$L0
  6
PHANTOM
 10
12.990353
 20
-1.951031
 11
13.099442
 21
-1.943403
  0
LINE
  8
Layer0$C$L0
  6
PHANTOM
 10
12.990353
 20
-1.991129
 11
13.099442
 21
-1.983500
  0
ARC
  8
Layer0$C$L0
  6
PHANTOM
 10
13.045206
 20
-1.936244
 40
7.000000E-02
100
AcDbArc
 50
250.580817
 51
289.780720
  0
LINE
  8
Layer0$C$L0
  6
PHANTOM
 10
13.099442
 20
-1.991129
 11
13.068895
 21
-2.002114
  0
LINE
  8
Layer0$C$L0
  6
PHANTOM
 10
12.990353
 20
-1.991129
 11
13.021933
 21
-2.002262
  0
LINE
  8
Layer0$C$L0
  6
PHANTOM
 10
13.099442
 20
-1.991129
 11
13.099442
 21
-1.910457
  0
LINE
  8
Layer0$C$L0
  6
PHANTOM
 10
12.990353
 20
-1.991129
 11
12.990353
 21
-1.911812
  0
LINE
  8
Layer0$C$L0
  6
PHANTOM
 10
12.789352
 20
-1.991129
 11
12.789352
 21
-1.911812
  0
LINE
  8
Layer0$C$L0
  6
PHANTOM
 10
12.898441
 20
-1.991129
 11
12.898441
 21
-1.910457
  0
LINE
  8
Layer0$C$L0
  6
PHANTOM
 10
12.789352
 20
-1.991129
 11
12.820934
 21
-2.002262
  0
LINE
  8
Layer0$C$L0
  6
PHANTOM
 10
12.898441
 20
-1.991129
 11
12.867897
 21
-2.002114
  0
ARC
  8
Layer0$C$L0
  6
PHANTOM
 10
12.844208
 20
-1.936244
 40
7.000000E-02
100
AcDbArc
 50
250.580817
 51
289.780720
  0
LINE
  8
Layer0$C$L0
  6
PHANTOM
 10
12.789352
 20
-1.991129
 11
12.898441
 21
-1.983500
  0
LINE
  8
Layer0$C$L0
  6
PHANTOM
 10
12.789352
 20
-1.951031
 11
12.898441
 21
-1.943403
  0
LINE
  8
Layer0$C$L0
  6
PHANTOM
 10
12.790096
 20
-1.910881
 11
12.892118
 21
-1.903747
  0
LINE
  8
Layer0$C$L0
  6
PHANTOM
 10
12.577095
 20
-1.910881
 11
12.679119
 21
-1.903747
  0
LINE
  8
Layer0$C$L0
  6
PHANTOM
 10
12.576353
 20
-1.951031
 11
12.685442
 21
-1.943403
  0
LINE
  8
Layer0$C$L0
  6
PHANTOM
 10
12.576353
 20
-1.991129
 11
12.685442
 21
-1.983500
  0
ARC
  8
Layer0$C$L0
  6
PHANTOM
 10
12.631207
 20
-1.936244
 40
7.000000E-02
100
AcDbArc
 50
250.580817
 51
289.780720
  0
LINE
  8
Layer0$C$L0
  6
PHANTOM
 10
12.685442
 20
-1.991129
 11
12.654896
 21
-2.002114
  0
LINE
  8
Layer0$C$L0
  6
PHANTOM
 10
12.576353
 20
-1.991129
 11
12.607933
 21
-2.002262
  0
LINE
  8
Layer0$C$L0
  6
PHANTOM
 10
12.685442
 20
-1.991129
 11
12.685442
 21
-1.910457
  0
LINE
  8
Layer0$C$L0
  6
PHANTOM
 10
12.576353
 20
-1.991129
 11
12.576353
 21
-1.911812
  0
LINE
  8
Layer0$C$L0
  6
PHANTOM
 10
12.363352
 20
-1.991129
 11
12.363352
 21
-1.911812
  0
LINE
  8
Layer0$C$L0
  6
PHANTOM
 10
12.472441
 20
-1.991129
 11
12.472441
 21
-1.910457
  0
LINE
  8
Layer0$C$L0
  6
PHANTOM
 10
12.363352
 20
-1.991129
 11
12.394934
 21
-2.002262
  0
LINE
  8
Layer0$C$L0
  6
PHANTOM
 10
12.472441
 20
-1.991129
 11
12.441896
 21
-2.002114
  0
ARC
  8
Layer0$C$L0
  6
PHANTOM
 10
12.418207
 20
-1.936244
 40
7.000000E-02
100
AcDbArc
 50
250.580817
 51
289.780720
  0
LINE
  8
Layer0$C$L0
  6
PHANTOM
 10
12.363352
 20
-1.991129
 11
12.472441
 21
-1.983500
  0
LINE
  8
Layer0$C$L0
  6
PHANTOM
 10
12.363352
 20
-1.951031
 11
12.472441
 21
-1.943403
  0
LINE
  8
Layer0$C$L0
  6
PHANTOM
 10
12.364096
 20
-1.910881
 11
12.466118
 21
-1.903747
  0
LINE
  8
Layer0$C$L0
  6
PHANTOM
 10
12.151094
 20
-1.910881
 11
12.253119
 21
-1.903747
  0
LINE
  8
Layer0$C$L0
  6
PHANTOM
 10
12.150352
 20
-1.951031
 11
12.259441
 21
-1.943403
  0
LINE
  8
Layer0$C$L0
  6
PHANTOM
 10
12.150352
 20
-1.991129
 11
12.259441
 21
-1.983500
  0
ARC
  8
Layer0$C$L0
  6
PHANTOM
 10
12.205206
 20
-1.936244
 40
7.000000E-02
100
AcDbArc
 50
250.580817
 51
289.780720
  0
LINE
  8
Layer0$C$L0
  6
PHANTOM
 10
12.259441
 20
-1.991129
 11
12.228895
 21
-2.002114
  0
LINE
  8
Layer0$C$L0
  6
PHANTOM
 10
12.150352
 20
-1.991129
 11
12.181932
 21
-2.002262
  0
LINE
  8
Layer0$C$L0
  6
PHANTOM
 10
12.259441
 20
-1.991129
 11
12.259441
 21
-1.910457
  0
LINE
  8
Layer0$C$L0
  6
PHANTOM
 10
12.150352
 20
-1.991129
 11
12.150352
 21
-1.911812
  0
LINE
  8
Layer0$C$L0
  6
PHANTOM
 10
12.150352
 20
-1.731128
 11
12.150352
 21
-1.651812
  0
LINE
  8
Layer0$C$L0
  6
PHANTOM
 10
12.259441
 20
-1.731128
 11
12.259441
 21
-1.650458
  0
LINE
  8
Layer0$C$L0
  6
PHANTOM
 10
12.150352
 20
-1.731128
 11
12.181932
 21
-1.742262
  0
LINE
  8
Layer0$C$L0
  6
PHANTOM
 10
12.259441
 20
-1.731128
 11
12.228895
 21
-1.742114
  0
ARC
  8
Layer0$C$L0
  6
PHANTOM
 10
12.205206
 20
-1.676244
 40
7.000000E-02
100
AcDbArc
 50
250.580817
 51
289.780720
  0
LINE
  8
Layer0$C$L0
  6
PHANTOM
 10
12.150352
 20
-1.731128
 11
12.259441
 21
-1.723500
  0
LINE
  8
Layer0$C$L0
  6
PHANTOM
 10
12.150352
 20
-1.691031
 11
12.259441
 21
-1.683403
  0
LINE
  8
Layer0$C$L0
  6
PHANTOM
 10
12.151094
 20
-1.650881
 11
12.253119
 21
-1.643747
  0
LINE
  8
Layer0$C$L0
  6
PHANTOM
 10
12.364096
 20
-1.650881
 11
12.466118
 21
-1.643747
  0
LINE
  8
Layer0$C$L0
  6
PHANTOM
 10
12.363352
 20
-1.691031
 11
12.472441
 21
-1.683403
  0
LINE
  8
Layer0$C$L0
  6
PHANTOM
 10
12.363352
 20
-1.731128
 11
12.472441
 21
-1.723500
  0
ARC
  8
Layer0$C$L0
  6
PHANTOM
 10
12.418207
 20
-1.676244
 40
7.000000E-02
100
AcDbArc
 50
250.580817
 51
289.780720
  0
LINE
  8
Layer0$C$L0
  6
PHANTOM
 10
12.472441
 20
-1.731128
 11
12.441896
 21
-1.742114
  0
LINE
  8
Layer0$C$L0
  6
PHANTOM
 10
12.363352
 20
-1.731128
 11
12.394934
 21
-1.742262
  0
LINE
  8
Layer0$C$L0
  6
PHANTOM
 10
12.472441
 20
-1.731128
 11
12.472441
 21
-1.650458
  0
LINE
  8
Layer0$C$L0
  6
PHANTOM
 10
12.363352
 20
-1.731128
 11
12.363352
 21
-1.651812
  0
LINE
  8
Layer0$C$L0
  6
PHANTOM
 10
12.576353
 20
-1.731128
 11
12.576353
 21
-1.651812
  0
LINE
  8
Layer0$C$L0
  6
PHANTOM
 10
12.685442
 20
-1.731128
 11
12.685442
 21
-1.650458
  0
LINE
  8
Layer0$C$L0
  6
PHANTOM
 10
12.576353
 20
-1.731128
 11
12.607933
 21
-1.742262
  0
LINE
  8
Layer0$C$L0
  6
PHANTOM
 10
12.685442
 20
-1.731128
 11
12.654896
 21
-1.742114
  0
ARC
  8
Layer0$C$L0
  6
PHANTOM
 10
12.631207
 20
-1.676244
 40
7.000000E-02
100
AcDbArc
 50
250.580817
 51
289.780720
  0
LINE
  8
Layer0$C$L0
  6
PHANTOM
 10
12.576353
 20
-1.731128
 11
12.685442
 21
-1.723500
  0
LINE
  8
Layer0$C$L0
  6
PHANTOM
 10
12.576353
 20
-1.691031
 11
12.685442
 21
-1.683403
  0
LINE
  8
Layer0$C$L0
  6
PHANTOM
 10
12.577095
 20
-1.650881
 11
12.679119
 21
-1.643747
  0
LINE
  8
Layer0$C$L0
  6
PHANTOM
 10
12.790096
 20
-1.650881
 11
12.892118
 21
-1.643747
  0
LINE
  8
Layer0$C$L0
  6
PHANTOM
 10
12.789352
 20
-1.691031
 11
12.898441
 21
-1.683403
  0
LINE
  8
Layer0$C$L0
  6
PHANTOM
 10
12.789352
 20
-1.731128
 11
12.898441
 21
-1.723500
  0
ARC
  8
Layer0$C$L0
  6
PHANTOM
 10
12.844208
 20
-1.676244
 40
7.000000E-02
100
AcDbArc
 50
250.580817
 51
289.780720
  0
LINE
  8
Layer0$C$L0
  6
PHANTOM
 10
12.898441
 20
-1.731128
 11
12.867897
 21
-1.742114
  0
LINE
  8
Layer0$C$L0
  6
PHANTOM
 10
12.789352
 20
-1.731128
 11
12.820934
 21
-1.742262
  0
LINE
  8
Layer0$C$L0
  6
PHANTOM
 10
12.898441
 20
-1.731128
 11
12.898441
 21
-1.650458
  0
LINE
  8
Layer0$C$L0
  6
PHANTOM
 10
12.789352
 20
-1.731128
 11
12.789352
 21
-1.651812
  0
LINE
  8
Layer0$C$L0
  6
PHANTOM
 10
12.789352
 20
-1.471129
 11
12.789352
 21
-1.391812
  0
LINE
  8
Layer0$C$L0
  6
PHANTOM
 10
12.898441
 20
-1.471129
 11
12.898441
 21
-1.390457
  0
LINE
  8
Layer0$C$L0
  6
PHANTOM
 10
12.789352
 20
-1.471129
 11
12.820934
 21
-1.482262
  0
LINE
  8
Layer0$C$L0
  6
PHANTOM
 10
12.898441
 20
-1.471129
 11
12.867897
 21
-1.482114
  0
ARC
  8
Layer0$C$L0
  6
PHANTOM
 10
12.844208
 20
-1.416244
 40
7.000000E-02
100
AcDbArc
 50
250.580817
 51
289.780720
  0
LINE
  8
Layer0$C$L0
  6
PHANTOM
 10
12.789352
 20
-1.471129
 11
12.898441
 21
-1.463500
  0
LINE
  8
Layer0$C$L0
  6
PHANTOM
 10
12.789352
 20
-1.431031
 11
12.898441
 21
-1.423403
  0
LINE
  8
Layer0$C$L0
  6
PHANTOM
 10
12.790096
 20
-1.390881
 11
12.892118
 21
-1.383747
  0
LINE
  8
Layer0$C$L0
  6
PHANTOM
 10
12.577095
 20
-1.390881
 11
12.679119
 21
-1.383747
  0
LINE
  8
Layer0$C$L0
  6
PHANTOM
 10
12.576353
 20
-1.431031
 11
12.685442
 21
-1.423403
  0
LINE
  8
Layer0$C$L0
  6
PHANTOM
 10
12.576353
 20
-1.471129
 11
12.685442
 21
-1.463500
  0
ARC
  8
Layer0$C$L0
  6
PHANTOM
 10
12.631207
 20
-1.416244
 40
7.000000E-02
100
AcDbArc
 50
250.580817
 51
289.780720
  0
LINE
  8
Layer0$C$L0
  6
PHANTOM
 10
12.685442
 20
-1.471129
 11
12.654896
 21
-1.482114
  0
LINE
  8
Layer0$C$L0
  6
PHANTOM
 10
12.576353
 20
-1.471129
 11
12.607933
 21
-1.482262
  0
LINE
  8
Layer0$C$L0
  6
PHANTOM
 10
12.685442
 20
-1.471129
 11
12.685442
 21
-1.390457
  0
LINE
  8
Layer0$C$L0
  6
PHANTOM
 10
12.576353
 20
-1.471129
 11
12.576353
 21
-1.391812
  0
LINE
  8
Layer0$C$L0
  6
PHANTOM
 10
12.363352
 20
-1.471129
 11
12.363352
 21
-1.391812
  0
LINE
  8
Layer0$C$L0
  6
PHANTOM
 10
12.472441
 20
-1.471129
 11
12.472441
 21
-1.390457
  0
LINE
  8
Layer0$C$L0
  6
PHANTOM
 10
12.363352
 20
-1.471129
 11
12.394934
 21
-1.482262
  0
LINE
  8
Layer0$C$L0
  6
PHANTOM
 10
12.472441
 20
-1.471129
 11
12.441896
 21
-1.482114
  0
ARC
  8
Layer0$C$L0
  6
PHANTOM
 10
12.418207
 20
-1.416244
 40
7.000000E-02
100
AcDbArc
 50
250.580817
 51
289.780720
  0
LINE
  8
Layer0$C$L0
  6
PHANTOM
 10
12.363352
 20
-1.471129
 11
12.472441
 21
-1.463500
  0
LINE
  8
Layer0$C$L0
  6
PHANTOM
 10
12.363352
 20
-1.431031
 11
12.472441
 21
-1.423403
  0
LINE
  8
Layer0$C$L0
  6
PHANTOM
 10
12.364096
 20
-1.390881
 11
12.466118
 21
-1.383747
  0
LINE
  8
Layer0$C$L0
  6
PHANTOM
 10
12.151094
 20
-1.390881
 11
12.253119
 21
-1.383747
  0
LINE
  8
Layer0$C$L0
  6
PHANTOM
 10
12.150352
 20
-1.431031
 11
12.259441
 21
-1.423403
  0
LINE
  8
Layer0$C$L0
  6
PHANTOM
 10
12.150352
 20
-1.471129
 11
12.259441
 21
-1.463500
  0
ARC
  8
Layer0$C$L0
  6
PHANTOM
 10
12.205206
 20
-1.416244
 40
7.000000E-02
100
AcDbArc
 50
250.580817
 51
289.780720
  0
LINE
  8
Layer0$C$L0
  6
PHANTOM
 10
12.259441
 20
-1.471129
 11
12.228895
 21
-1.482114
  0
LINE
  8
Layer0$C$L0
  6
PHANTOM
 10
12.150352
 20
-1.471129
 11
12.181932
 21
-1.482262
  0
LINE
  8
Layer0$C$L0
  6
PHANTOM
 10
12.259441
 20
-1.471129
 11
12.259441
 21
-1.390457
  0
LINE
  8
Layer0$C$L0
  6
PHANTOM
 10
12.150352
 20
-1.471129
 11
12.150352
 21
-1.391812
  0
CIRCLE
  5
1b
100
AcDbEntity
  8
Layer0$C$L0
  6
PHANTOM
100
AcDbCircle
 10
12.844442
 20
-1.955000
 40
7.000000E-02
  0
CIRCLE
  5
1c
100
AcDbEntity
  8
Layer0$C$L0
  6
PHANTOM
100
AcDbCircle
 10
12.631441
 20
-1.955000
 40
7.000000E-02
  0
CIRCLE
  5
1d
100
AcDbEntity
  8
Layer0$C$L0
  6
PHANTOM
100
AcDbCircle
 10
12.418442
 20
-1.955000
 40
7.000000E-02
  0
CIRCLE
  5
1e
100
AcDbEntity
  8
Layer0$C$L0
  6
PHANTOM
100
AcDbCircle
 10
12.205441
 20
-1.955000
 40
7.000000E-02
  0
CIRCLE
  5
1f
100
AcDbEntity
  8
Layer0$C$L0
  6
PHANTOM
100
AcDbCircle
 10
12.205441
 20
-1.695000
 40
7.000000E-02
  0
CIRCLE
  5
20
100
AcDbEntity
  8
Layer0$C$L0
  6
PHANTOM
100
AcDbCircle
 10
12.418442
 20
-1.695000
 40
7.000000E-02
  0
CIRCLE
  5
21
100
AcDbEntity
  8
Layer0$C$L0
  6
PHANTOM
100
AcDbCircle
 10
12.631441
 20
-1.695000
 40
7.000000E-02
  0
CIRCLE
  5
22
100
AcDbEntity
  8
Layer0$C$L0
  6
PHANTOM
100
AcDbCircle
 10
12.844442
 20
-1.695000
 40
7.000000E-02
  0
CIRCLE
  5
23
100
AcDbEntity
  8
Layer0$C$L0
  6
PHANTOM
100
AcDbCircle
 10
12.844442
 20
-1.435000
 40
7.000000E-02
  0
CIRCLE
  5
24
100
AcDbEntity
  8
Layer0$C$L0
  6
PHANTOM
100
AcDbCircle
 10
12.631441
 20
-1.435000
 40
7.000000E-02
  0
CIRCLE
  5
25
100
AcDbEntity
  8
Layer0$C$L0
  6
PHANTOM
100
AcDbCircle
 10
12.418442
 20
-1.435000
 40
7.000000E-02
  0
CIRCLE
  5
26
100
AcDbEntity
  8
Layer0$C$L0
  6
PHANTOM
100
AcDbCircle
 10
12.205441
 20
-1.435000
 40
7.000000E-02
  0
TEXT
  8
Layer0$C$L0
 10
13.3134887218
 20
-4.2966427803
 40
0.1250000000
  1
3/95
 41
0.7738941652
 72
     5
 11
13.6036990338
 21
-4.2966427803
  0
TEXT
  8
Layer0$C$L0
 10
14.1464593210
 20
4.4412746159
 40
0.1250000000
  1
RELEASED
 72
     5
 11
15.1134595477
 21
4.4412746159
  0
TEXT
  8
Layer0$C$L0
 10
12.7714589261
 20
4.4412746159
 40
0.1250000000
  1
00
 72
     5
 11
12.9884591528
 21
4.4412746159
  0
TEXT
  8
Layer0$C$L0
 10
15.3237881660
 20
-4.9627614021
 40
0.1250000000
  1
31B0249    00
 72
     5
 11
16.9157883928
 21
-4.9627614021
  0
POLYLINE
  8
Layer0$C$L0
 10
0.0000000000
 20
0.0000000000
 30
0.0000000000
 66
     1
 70
     0
  0
VERTEX
  8
Layer0$C$L0
 10
5.2296061516
 20
2.0733716488
  0
VERTEX
  8
Layer0$C$L0
 10
6.0562604966
 20
0.8421962261
  0
VERTEX
  8
Layer0$C$L0
 10
6.1812604966
 20
0.8421962261
  0
SEQEND
  8
Layer0$C$L0
  0
SOLID
  8
Layer0$C$L0
 10
5.2896285928
 20
1.9293810140
 11
5.3401624868
 21
1.9633112422
 12
5.2296061516
 22
2.0733716488
 13
5.2296061516
 23
2.0733716488
  0
TEXT
  8
Layer0$C$L0
 10
6.2440504968
 20
0.7796962261
 40
0.1250000000
  1
SECONDARY END
 72
     5
 11
7.8360507235
 21
0.7796962261
  0
TEXT
  8
Layer0$C$L0
 10
5.9940505028
 20
0.5926962197
 40
0.1250000000
  1
(SMALLEST HOLE(S)
 72
     5
 11
8.0860507295
 21
0.5926962197
  0
TEXT
  8
Layer0$C$L0
 10
6.3690505058
 20
0.4056962132
 40
0.1250000000
  1
OR STUD(S))
 72
     5
 11
7.7110507325
 21
0.4056962132
  0
POLYLINE
  8
Layer0$C$L0
 10
0.0000000000
 20
0.0000000000
 30
0.0000000000
 66
     1
 70
     0
  0
VERTEX
  8
Layer0$C$L0
 10
3.2302894592
 20
2.1909785271
  0
VERTEX
  8
Layer0$C$L0
 10
2.1593298066
 20
0.7147887945
  0
VERTEX
  8
Layer0$C$L0
 10
2.2843298066
 20
0.7147887945
  0
SEQEND
  8
Layer0$C$L0
  0
SOLID
  8
Layer0$C$L0
 10
3.1158082266
 20
2.0850066264
 11
3.1650762823
 21
2.0492631860
 12
3.2302894592
 22
2.1909785271
 13
3.2302894592
 23
2.1909785271
  0
TEXT
  8
Layer0$C$L0
 10
2.3471198067
 20
0.6522887945
 40
0.1250000000
  1
PRIMARY END
 72
     5
 11
3.6891200334
 21
0.6522887945
  0
TEXT
  8
Layer0$C$L0
 10
2.0346198082
 20
0.4652887881
 40
0.1250000000
  1
(LARGEST HOLE(S)
 72
     5
 11
4.0016200349
 21
0.4652887881
  0
TEXT
  8
Layer0$C$L0
 10
2.3471198067
 20
0.2782887816
 40
0.1250000000
  1
OR STUD(S))
 72
     5
 11
3.6891200334
 21
0.2782887816
  0
POLYLINE
  8
Layer0$C$L0
 10
0.0000000000
 20
0.0000000000
 30
0.0000000000
 66
     1
 70
     0
  0
VERTEX
  8
Layer0$C$L0
 10
4.1515431404
 20
2.8280155659
  0
VERTEX
  8
Layer0$C$L0
 10
4.9171061516
 20
4.0922889709
  0
VERTEX
  8
Layer0$C$L0
 10
5.0421061516
 20
4.0922889709
  0
SEQEND
  8
Layer0$C$L0
  0
SOLID
  8
Layer0$C$L0
 10
4.2568275884
 20
2.9431293417
 11
4.2047611521
 21
2.9746574411
 12
4.1515431404
 22
2.8280155659
 13
4.1515431404
 23
2.8280155659
  0
CIRCLE
  5
27
100
AcDbEntity
  8
Layer0$C$L0
100
AcDbCircle
 10
10.570440
 20
-1.435000
 40
7.000000E-02
  0
CIRCLE
  5
28
100
AcDbEntity
  8
Layer0$C$L0
100
AcDbCircle
 10
10.783442
 20
-1.435000
 40
7.000000E-02
  0
CIRCLE
  5
90
100
AcDbEntity
  8
Layer0$C$L0
100
AcDbCircle
 10
10.996441
 20
-1.435000
 40
7.000000E-02
  0
CIRCLE
  5
91
100
AcDbEntity
  8
Layer0$C$L0
100
AcDbCircle
 10
11.209442
 20
-1.435000
 40
7.000000E-02
  0
CIRCLE
  5
92
100
AcDbEntity
  8
Layer0$C$L0
100
AcDbCircle
 10
11.209442
 20
-1.695000
 40
7.000000E-02
  0
CIRCLE
  5
93
100
AcDbEntity
  8
Layer0$C$L0
100
AcDbCircle
 10
10.996441
 20
-1.695000
 40
7.000000E-02
  0
CIRCLE
  5
94
100
AcDbEntity
  8
Layer0$C$L0
100
AcDbCircle
 10
10.783442
 20
-1.695000
 40
7.000000E-02
  0
CIRCLE
  5
95
100
AcDbEntity
  8
Layer0$C$L0
100
AcDbCircle
 10
10.570440
 20
-1.695000
 40
7.000000E-02
  0
CIRCLE
  5
96
100
AcDbEntity
  8
Layer0$C$L0
100
AcDbCircle
 10
10.570440
 20
-1.955000
 40
7.000000E-02
  0
CIRCLE
  5
97
100
AcDbEntity
  8
Layer0$C$L0
100
AcDbCircle
 10
10.783442
 20
-1.955000
 40
7.000000E-02
  0
CIRCLE
  5
98
100
AcDbEntity
  8
Layer0$C$L0
100
AcDbCircle
 10
10.996441
 20
-1.955000
 40
7.000000E-02
  0
CIRCLE
  5
99
100
AcDbEntity
  8
Layer0$C$L0
100
AcDbCircle
 10
11.209442
 20
-1.955000
 40
7.000000E-02
  0
LINE
  8
Layer0$C$L0
 10
10.515352
 20
-1.471129
 11
10.515352
 21
-1.391812
  0
LINE
  8
Layer0$C$L0
 10
10.624441
 20
-1.471129
 11
10.624441
 21
-1.390457
  0
LINE
  8
Layer0$C$L0
 10
10.515352
 20
-1.471129
 11
10.546932
 21
-1.482262
  0
LINE
  8
Layer0$C$L0
 10
10.624441
 20
-1.471129
 11
10.593895
 21
-1.482114
  0
ARC
  8
Layer0$C$L0
 10
10.570206
 20
-1.416244
 40
7.000000E-02
100
AcDbArc
 50
250.580817
 51
289.780720
  0
LINE
  8
Layer0$C$L0
 10
10.515352
 20
-1.471129
 11
10.624441
 21
-1.463500
  0
LINE
  8
Layer0$C$L0
 10
10.515352
 20
-1.431031
 11
10.624441
 21
-1.423403
  0
LINE
  8
Layer0$C$L0
 10
10.516094
 20
-1.390881
 11
10.618118
 21
-1.383747
  0
LINE
  8
Layer0$C$L0
 10
10.729095
 20
-1.390881
 11
10.831118
 21
-1.383747
  0
LINE
  8
Layer0$C$L0
 10
10.728352
 20
-1.431031
 11
10.837440
 21
-1.423403
  0
LINE
  8
Layer0$C$L0
 10
10.728352
 20
-1.471129
 11
10.837440
 21
-1.463500
  0
ARC
  8
Layer0$C$L0
 10
10.783207
 20
-1.416244
 40
7.000000E-02
100
AcDbArc
 50
250.580817
 51
289.780720
  0
LINE
  8
Layer0$C$L0
 10
10.837440
 20
-1.471129
 11
10.806896
 21
-1.482114
  0
LINE
  8
Layer0$C$L0
 10
10.728352
 20
-1.471129
 11
10.759933
 21
-1.482262
  0
LINE
  8
Layer0$C$L0
 10
10.837440
 20
-1.471129
 11
10.837440
 21
-1.390457
  0
LINE
  8
Layer0$C$L0
 10
10.728352
 20
-1.471129
 11
10.728352
 21
-1.391812
  0
LINE
  8
Layer0$C$L0
 10
10.941353
 20
-1.471129
 11
10.941353
 21
-1.391812
  0
LINE
  8
Layer0$C$L0
 10
11.050442
 20
-1.471129
 11
11.050442
 21
-1.390457
  0
LINE
  8
Layer0$C$L0
 10
10.941353
 20
-1.471129
 11
10.972933
 21
-1.482262
  0
LINE
  8
Layer0$C$L0
 10
11.050442
 20
-1.471129
 11
11.019896
 21
-1.482114
  0
ARC
  8
Layer0$C$L0
 10
10.996206
 20
-1.416244
 40
7.000000E-02
100
AcDbArc
 50
250.580817
 51
289.780720
  0
LINE
  8
Layer0$C$L0
 10
10.941353
 20
-1.471129
 11
11.050442
 21
-1.463500
  0
LINE
  8
Layer0$C$L0
 10
10.941353
 20
-1.431031
 11
11.050442
 21
-1.423403
  0
LINE
  8
Layer0$C$L0
 10
10.942095
 20
-1.390881
 11
11.044119
 21
-1.383747
  0
LINE
  8
Layer0$C$L0
 10
11.155096
 20
-1.390881
 11
11.257118
 21
-1.383747
  0
LINE
  8
Layer0$C$L0
 10
11.154352
 20
-1.431031
 11
11.263441
 21
-1.423403
  0
LINE
  8
Layer0$C$L0
 10
11.154352
 20
-1.471129
 11
11.263441
 21
-1.463500
  0
ARC
  8
Layer0$C$L0
 10
11.209208
 20
-1.416244
 40
7.000000E-02
100
AcDbArc
 50
250.580817
 51
289.780720
  0
LINE
  8
Layer0$C$L0
 10
11.263441
 20
-1.471129
 11
11.232897
 21
-1.482114
  0
LINE
  8
Layer0$C$L0
 10
11.154352
 20
-1.471129
 11
11.185934
 21
-1.482262
  0
LINE
  8
Layer0$C$L0
 10
11.263441
 20
-1.471129
 11
11.263441
 21
-1.390457
  0
LINE
  8
Layer0$C$L0
 10
11.154352
 20
-1.471129
 11
11.154352
 21
-1.391812
  0
LINE
  8
Layer0$C$L0
 10
11.154352
 20
-1.731128
 11
11.154352
 21
-1.651812
  0
LINE
  8
Layer0$C$L0
 10
11.263441
 20
-1.731128
 11
11.263441
 21
-1.650458
  0
LINE
  8
Layer0$C$L0
 10
11.154352
 20
-1.731128
 11
11.185934
 21
-1.742262
  0
LINE
  8
Layer0$C$L0
 10
11.263441
 20
-1.731128
 11
11.232897
 21
-1.742114
  0
ARC
  8
Layer0$C$L0
 10
11.209208
 20
-1.676244
 40
7.000000E-02
100
AcDbArc
 50
250.580817
 51
289.780720
  0
LINE
  8
Layer0$C$L0
 10
11.154352
 20
-1.731128
 11
11.263441
 21
-1.723500
  0
LINE
  8
Layer0$C$L0
 10
11.154352
 20
-1.691031
 11
11.263441
 21
-1.683403
  0
LINE
  8
Layer0$C$L0
 10
11.155096
 20
-1.650881
 11
11.257118
 21
-1.643747
  0
LINE
  8
Layer0$C$L0
 10
10.942095
 20
-1.650881
 11
11.044119
 21
-1.643747
  0
LINE
  8
Layer0$C$L0
 10
10.941353
 20
-1.691031
 11
11.050442
 21
-1.683403
  0
LINE
  8
Layer0$C$L0
 10
10.941353
 20
-1.731128
 11
11.050442
 21
-1.723500
  0
ARC
  8
Layer0$C$L0
 10
10.996206
 20
-1.676244
 40
7.000000E-02
100
AcDbArc
 50
250.580817
 51
289.780720
  0
LINE
  8
Layer0$C$L0
 10
11.050442
 20
-1.731128
 11
11.019896
 21
-1.742114
  0
LINE
  8
Layer0$C$L0
 10
10.941353
 20
-1.731128
 11
10.972933
 21
-1.742262
  0
LINE
  8
Layer0$C$L0
 10
11.050442
 20
-1.731128
 11
11.050442
 21
-1.650458
  0
LINE
  8
Layer0$C$L0
 10
10.941353
 20
-1.731128
 11
10.941353
 21
-1.651812
  0
LINE
  8
Layer0$C$L0
 10
10.728352
 20
-1.731128
 11
10.728352
 21
-1.651812
  0
LINE
  8
Layer0$C$L0
 10
10.837440
 20
-1.731128
 11
10.837440
 21
-1.650458
  0
LINE
  8
Layer0$C$L0
 10
10.728352
 20
-1.731128
 11
10.759933
 21
-1.742262
  0
LINE
  8
Layer0$C$L0
 10
10.837440
 20
-1.731128
 11
10.806896
 21
-1.742114
  0
ARC
  8
Layer0$C$L0
 10
10.783207
 20
-1.676244
 40
7.000000E-02
100
AcDbArc
 50
250.580817
 51
289.780720
  0
LINE
  8
Layer0$C$L0
 10
10.728352
 20
-1.731128
 11
10.837440
 21
-1.723500
  0
LINE
  8
Layer0$C$L0
 10
10.728352
 20
-1.691031
 11
10.837440
 21
-1.683403
  0
LINE
  8
Layer0$C$L0
 10
10.729095
 20
-1.650881
 11
10.831118
 21
-1.643747
  0
LINE
  8
Layer0$C$L0
 10
10.516094
 20
-1.650881
 11
10.618118
 21
-1.643747
  0
LINE
  8
Layer0$C$L0
 10
10.515352
 20
-1.691031
 11
10.624441
 21
-1.683403
  0
LINE
  8
Layer0$C$L0
 10
10.515352
 20
-1.731128
 11
10.624441
 21
-1.723500
  0
ARC
  8
Layer0$C$L0
 10
10.570206
 20
-1.676244
 40
7.000000E-02
100
AcDbArc
 50
250.580817
 51
289.780720
  0
LINE
  8
Layer0$C$L0
 10
10.624441
 20
-1.731128
 11
10.593895
 21
-1.742114
  0
LINE
  8
Layer0$C$L0
 10
10.515352
 20
-1.731128
 11
10.546932
 21
-1.742262
  0
LINE
  8
Layer0$C$L0
 10
10.624441
 20
-1.731128
 11
10.624441
 21
-1.650458
  0
LINE
  8
Layer0$C$L0
 10
10.515352
 20
-1.731128
 11
10.515352
 21
-1.651812
  0
LINE
  8
Layer0$C$L0
 10
10.515352
 20
-1.991129
 11
10.515352
 21
-1.911812
  0
LINE
  8
Layer0$C$L0
 10
10.624441
 20
-1.991129
 11
10.624441
 21
-1.910457
  0
LINE
  8
Layer0$C$L0
 10
10.515352
 20
-1.991129
 11
10.546932
 21
-2.002262
  0
LINE
  8
Layer0$C$L0
 10
10.624441
 20
-1.991129
 11
10.593895
 21
-2.002114
  0
ARC
  8
Layer0$C$L0
 10
10.570206
 20
-1.936244
 40
7.000000E-02
100
AcDbArc
 50
250.580817
 51
289.780720
  0
LINE
  8
Layer0$C$L0
 10
10.515352
 20
-1.991129
 11
10.624441
 21
-1.983500
  0
LINE
  8
Layer0$C$L0
 10
10.515352
 20
-1.951031
 11
10.624441
 21
-1.943403
  0
LINE
  8
Layer0$C$L0
 10
10.516094
 20
-1.910881
 11
10.618118
 21
-1.903747
  0
LINE
  8
Layer0$C$L0
 10
10.729095
 20
-1.910881
 11
10.831118
 21
-1.903747
  0
LINE
  8
Layer0$C$L0
 10
10.728352
 20
-1.951031
 11
10.837440
 21
-1.943403
  0
LINE
  8
Layer0$C$L0
 10
10.728352
 20
-1.991129
 11
10.837440
 21
-1.983500
  0
ARC
  8
Layer0$C$L0
 10
10.783207
 20
-1.936244
 40
7.000000E-02
100
AcDbArc
 50
250.580817
 51
289.780720
  0
LINE
  8
Layer0$C$L0
 10
10.837440
 20
-1.991129
 11
10.806896
 21
-2.002114
  0
LINE
  8
Layer0$C$L0
 10
10.728352
 20
-1.991129
 11
10.759933
 21
-2.002262
  0
LINE
  8
Layer0$C$L0
 10
10.837440
 20
-1.991129
 11
10.837440
 21
-1.910457
  0
LINE
  8
Layer0$C$L0
 10
10.728352
 20
-1.991129
 11
10.728352
 21
-1.911812
  0
LINE
  8
Layer0$C$L0
 10
10.941353
 20
-1.991129
 11
10.941353
 21
-1.911812
  0
LINE
  8
Layer0$C$L0
 10
11.050442
 20
-1.991129
 11
11.050442
 21
-1.910457
  0
LINE
  8
Layer0$C$L0
 10
10.941353
 20
-1.991129
 11
10.972933
 21
-2.002262
  0
LINE
  8
Layer0$C$L0
 10
11.050442
 20
-1.991129
 11
11.019896
 21
-2.002114
  0
ARC
  8
Layer0$C$L0
 10
10.996206
 20
-1.936244
 40
7.000000E-02
100
AcDbArc
 50
250.580817
 51
289.780720
  0
LINE
  8
Layer0$C$L0
 10
10.941353
 20
-1.991129
 11
11.050442
 21
-1.983500
  0
LINE
  8
Layer0$C$L0
 10
10.941353
 20
-1.951031
 11
11.050442
 21
-1.943403
  0
LINE
  8
Layer0$C$L0
 10
10.942095
 20
-1.910881
 11
11.044119
 21
-1.903747
  0
LINE
  8
Layer0$C$L0
 10
11.155096
 20
-1.910881
 11
11.257118
 21
-1.903747
  0
LINE
  8
Layer0$C$L0
 10
11.154352
 20
-1.951031
 11
11.263441
 21
-1.943403
  0
LINE
  8
Layer0$C$L0
 10
11.154352
 20
-1.991129
 11
11.263441
 21
-1.983500
  0
ARC
  8
Layer0$C$L0
 10
11.209208
 20
-1.936244
 40
7.000000E-02
100
AcDbArc
 50
250.580817
 51
289.780720
  0
LINE
  8
Layer0$C$L0
 10
11.263441
 20
-1.991129
 11
11.232897
 21
-2.002114
  0
LINE
  8
Layer0$C$L0
 10
11.154352
 20
-1.991129
 11
11.185934
 21
-2.002262
  0
LINE
  8
Layer0$C$L0
 10
11.263441
 20
-1.991129
 11
11.263441
 21
-1.910457
  0
LINE
  8
Layer0$C$L0
 10
11.154352
 20
-1.991129
 11
11.154352
 21
-1.911812
  0
LINE
  8
Layer0$C$L0
 10
11.355352
 20
-1.991129
 11
11.355352
 21
-1.911812
  0
LINE
  8
Layer0$C$L0
 10
11.464441
 20
-1.991129
 11
11.464441
 21
-1.910457
  0
LINE
  8
Layer0$C$L0
 10
11.355352
 20
-1.991129
 11
11.386932
 21
-2.002262
  0
LINE
  8
Layer0$C$L0
 10
11.464441
 20
-1.991129
 11
11.433895
 21
-2.002114
  0
ARC
  8
Layer0$C$L0
 10
11.410206
 20
-1.936244
 40
7.000000E-02
100
AcDbArc
 50
250.580817
 51
289.780720
  0
LINE
  8
Layer0$C$L0
 10
11.355352
 20
-1.991129
 11
11.464441
 21
-1.983500
  0
LINE
  8
Layer0$C$L0
 10
11.355352
 20
-1.951031
 11
11.464441
 21
-1.943403
  0
LINE
  8
Layer0$C$L0
 10
11.356094
 20
-1.910881
 11
11.458118
 21
-1.903747
  0
LINE
  8
Layer0$C$L0
 10
11.356094
 20
-1.650881
 11
11.458118
 21
-1.643747
  0
LINE
  8
Layer0$C$L0
 10
11.355352
 20
-1.691031
 11
11.464441
 21
-1.683403
  0
LINE
  8
Layer0$C$L0
 10
11.355352
 20
-1.731128
 11
11.464441
 21
-1.723500
  0
ARC
  8
Layer0$C$L0
 10
11.410206
 20
-1.676244
 40
7.000000E-02
100
AcDbArc
 50
250.580817
 51
289.780720
  0
LINE
  8
Layer0$C$L0
 10
11.464441
 20
-1.731128
 11
11.433895
 21
-1.742114
  0
LINE
  8
Layer0$C$L0
 10
11.355352
 20
-1.731128
 11
11.386932
 21
-1.742262
  0
LINE
  8
Layer0$C$L0
 10
11.464441
 20
-1.731128
 11
11.464441
 21
-1.650458
  0
LINE
  8
Layer0$C$L0
 10
11.355352
 20
-1.731128
 11
11.355352
 21
-1.651812
  0
LINE
  8
Layer0$C$L0
 10
11.355352
 20
-1.471129
 11
11.355352
 21
-1.391812
  0
LINE
  8
Layer0$C$L0
 10
11.464441
 20
-1.471129
 11
11.464441
 21
-1.390457
  0
LINE
  8
Layer0$C$L0
 10
11.355352
 20
-1.471129
 11
11.386932
 21
-1.482262
  0
LINE
  8
Layer0$C$L0
 10
11.464441
 20
-1.471129
 11
11.433895
 21
-1.482114
  0
ARC
  8
Layer0$C$L0
 10
11.410206
 20
-1.416244
 40
7.000000E-02
100
AcDbArc
 50
250.580817
 51
289.780720
  0
LINE
  8
Layer0$C$L0
 10
11.355352
 20
-1.471129
 11
11.464441
 21
-1.463500
  0
LINE
  8
Layer0$C$L0
 10
11.355352
 20
-1.431031
 11
11.464441
 21
-1.423403
  0
LINE
  8
Layer0$C$L0
 10
11.356094
 20
-1.390881
 11
11.458118
 21
-1.383747
  0
CIRCLE
  5
9a
100
AcDbEntity
  8
Layer0$C$L0
100
AcDbCircle
 10
11.410440
 20
-1.955000
 40
7.000000E-02
  0
CIRCLE
  5
9b
100
AcDbEntity
  8
Layer0$C$L0
100
AcDbCircle
 10
11.410440
 20
-1.695000
 40
7.000000E-02
  0
CIRCLE
  5
9c
100
AcDbEntity
  8
Layer0$C$L0
100
AcDbCircle
 10
11.410440
 20
-1.435000
 40
7.000000E-02
  0
TEXT
  8
Layer0$C$L0
 10
12.4384884834
 20
-4.2966427803
 40
0.1250000000
  1
CEP
 72
     5
 11
12.7804887101
 21
-4.2966427803
  0
POLYLINE
  8
Layer0$C$L0
 10
0.0000000000
 20
0.0000000000
 30
0.0000000000
 66
     1
 70
     0
  0
VERTEX
  8
Layer0$C$L0
 10
10.0092296600
 20
-1.9747402668
  0
VERTEX
  8
Layer0$C$L0
 10
8.3811739129
 20
-1.4127403498
  0
VERTEX
  8
Layer0$C$L0
 10
8.2561739129
 20
-1.4127403498
  0
SEQEND
  8
Layer0$C$L0
  0
SOLID
  8
Layer0$C$L0
 10
9.8745324358
 20
-1.8960468481
 11
9.8546709839
 21
-1.9535834240
 12
10.0092296600
 22
-1.9747402668
 13
10.0092296600
 23
-1.9747402668
  0
POLYLINE
  8
Layer0$C$L0
 10
0.0000000000
 20
0.0000000000
 30
0.0000000000
 66
     1
 70
     0
  0
VERTEX
  8
Layer0$C$L0
 10
5.5393457413
 20
-1.8466633558
  0
VERTEX
  8
Layer0$C$L0
 10
7.4135936859
 20
-1.4127403498
  0
VERTEX
  8
Layer0$C$L0
 10
7.5385936859
 20
-1.4127403498
  0
SEQEND
  8
Layer0$C$L0
  0
SOLID
  8
Layer0$C$L0
 10
5.6952699993
 20
-1.8418030984
 11
5.6815410319
 21
-1.7825034332
 12
5.5393457413
 22
-1.8466633558
 13
5.5393457413
 23
-1.8466633558
  0
TEXT
  8
Layer0$C$L0
 10
7.6013836861
 20
-1.4752403498
 40
0.1250000000
  1
LABEL
 72
     5
 11
8.1933839128
 21
-1.4752403498
  0
POLYLINE
  8
Layer0$C$L0
 10
0.0000000000
 20
0.0000000000
 30
0.0000000000
 66
     1
 70
     0
  0
VERTEX
  8
Layer0$C$L0
 10
10.8683099747
 20
-1.1030957699
  0
VERTEX
  8
Layer0$C$L0
 10
11.4245379269
 20
0.5734820366
  0
VERTEX
  8
Layer0$C$L0
 10
11.5495379269
 20
0.5734820366
  0
SEQEND
  8
Layer0$C$L0
  0
SOLID
  8
Layer0$C$L0
 10
10.9453743217
 20
-0.9674599237
 11
10.8876025564
 21
-0.9482933389
 12
10.8683099747
 22
-1.1030957699
 13
10.8683099747
 23
-1.1030957699
  0
POLYLINE
  8
Layer0$C$L0
 10
0.0000000000
 20
0.0000000000
 30
0.0000000000
 66
     1
 70
     0
  0
VERTEX
  8
Layer0$C$L0
 10
10.1797161102
 20
-0.5641957521
  0
VERTEX
  8
Layer0$C$L0
 10
10.4664938748
 20
0.8728708625
  0
VERTEX
  8
Layer0$C$L0
 10
10.5914938748
 20
0.8728708625
  0
SEQEND
  8
Layer0$C$L0
  0
SOLID
  8
Layer0$C$L0
 10
10.2395041728
 20
-0.4201076405
 11
10.1798129444
 21
-0.4081957939
 12
10.1797161102
 22
-0.5641957521
 13
10.1797161102
 23
-0.5641957521
  0
ARC
  8
Layer0$C$L0
 10
2.9227962494
 20
-0.9249999523
 40
0.1250000000
100
AcDbArc
 50
90.0000000000
 51
180.0000000000
  0
ARC
  8
Layer0$C$L0
 10
2.9227962494
 20
-2.1124999523
 40
0.1250000000
100
AcDbArc
 50
180.0000000000
 51
270.0000000000
  0
ARC
  8
Layer0$C$L0
 10
5.4852962494
 20
-2.1124999523
 40
0.1250000000
100
AcDbArc
 50
270.0000000000
 51
360.0000000000
  0
ARC
  8
Layer0$C$L0
 10
5.4852962494
 20
-0.9249999523
 40
0.1250000000
100
AcDbArc
 50
0.0000000000
 51
90.0000000000
  0
LINE
  8
Layer0$C$L0
 10
2.7977962494
 20
-0.9249999523
 11
2.7977962494
 21
-2.1124999523
  0
LINE
  8
Layer0$C$L0
 10
5.6102962494
 20
-0.9249999523
 11
5.6102962494
 21
-2.1124999523
  0
LINE
  8
Layer0$C$L0
 10
5.4852962494
 20
-2.2374999523
 11
2.9227962494
 21
-2.2374999523
  0
LINE
  8
Layer0$C$L0
 10
5.4852962494
 20
-0.7999999523
 11
2.9227962494
 21
-0.7999999523
  0
INSERT
  8
Layer0$C$L0
  2
BP
 10
9.8092956543
 20
-1.3131540269E-02
  0
LINE
  8
Layer85$C$L85
 10
2.575372
 20
-0.575000
 11
2.308862
 21
-0.575000
  0
LINE
  8
Layer85$C$L85
 10
5.832721
 20
-0.675000
 11
2.575372
 21
-0.675000
  0
ARC
  8
Layer85$C$L85
 10
6.099231
 20
-0.585000
 40
1.000000E-02
100
AcDbArc
 50
1.999989
 51
90.000003
  0
ARC
  8
Layer85$C$L85
 10
2.308862
 20
-0.585000
 40
1.000000E-02
100
AcDbArc
 50
90.000003
 51
178.000016
  0
LINE
  8
Layer85$C$L85
 10
6.099231
 20
-0.575000
 11
5.832721
 21
-0.575000
  0
LINE
  8
Layer85$C$L85
 10
2.204046
 20
-3.300000
 11
2.298868
 21
-0.584651
  0
LINE
  8
Layer85$C$L85
 10
6.204046
 20
-3.300000
 11
6.109224
 21
-0.584651
  0
LINE
  8
Layer85$C$L85
 10
2.204046
 20
-3.300000
 11
2.207253
 21
-3.300000
  0
LINE
  8
Layer85$C$L85
 10
5.832721
 20
-0.575000
 11
5.832721
 21
-3.300000
  0
LINE
  8
Layer85$C$L85
 10
6.082379
 20
-0.575000
 11
6.082379
 21
-3.300000
  0
LINE
  8
Layer85$C$L85
 10
2.575372
 20
-0.575000
 11
2.575372
 21
-3.300000
  0
LINE
  8
Layer85$C$L85
 10
2.325713
 20
-0.575000
 11
2.325713
 21
-3.300000
  0
LINE
  8
Layer85$C$L85
 10
2.204046
 20
-3.300000
 11
6.204046
 21
-3.300000
  0
LINE
  8
Layer0$C$L0
 62
     6
 10
11.8403472896
 20
-0.6750002410
 11
11.9369430542
 21
-0.6750000119
  0
LINE
  8
Layer0$C$L0
 62
     6
 10
11.8403472896
 20
-0.6750002410
 11
11.6769428253
 21
-0.6750000119
  0
LINE
  8
Layer0$C$L0
 62
     6
 10
11.8644399643
 20
-3.2999999523
 11
10.0190334320
 21
-3.2999999523
  0
INSERT
  8
Layer0$C$L0
  2
TOPSET_141
 10
4.574047
 20
2.147907
 50
270.000001
  0
INSERT
  8
Layer0$C$L0
  2
TOPSET_141
 10
4.574047
 20
2.357907
 50
270.000001
  0
INSERT
  8
Layer0$C$L0
  2
TOPSET_141
 10
4.574047
 20
2.567907
 50
270.000001
  0
INSERT
  8
Layer0$C$L0
  2
TOPSET_141
 10
4.574047
 20
2.777907
 50
270.000001
  0
INSERT
  8
Layer0$C$L0
  2
TOPSET_141
 10
4.574047
 20
2.987909
 50
270.000001
  0
INSERT
  8
Layer0$C$L0
  2
TOPSET_141
 10
4.886047
 20
2.987909
 50
270.000001
  0
INSERT
  8
Layer0$C$L0
  2
TOPSET_141
 10
4.886047
 20
2.777907
 50
270.000001
  0
INSERT
  8
Layer0$C$L0
  2
TOPSET_141
 10
4.886047
 20
2.567907
 50
270.000001
  0
INSERT
  8
Layer0$C$L0
  2
TOPSET_141
 10
4.886047
 20
2.357907
 50
270.000001
  0
INSERT
  8
Layer0$C$L0
  2
TOPSET_141
 10
4.886047
 20
2.147907
 50
270.000001
  0
INSERT
  8
Layer0$C$L0
  2
TOPSET_141
 10
5.198048
 20
2.147907
 50
270.000001
  0
INSERT
  8
Layer0$C$L0
  2
TOPSET_141
 10
5.198048
 20
2.357907
 50
270.000001
  0
INSERT
  8
Layer0$C$L0
  2
TOPSET_141
 10
5.198048
 20
2.567907
 50
270.000001
  0
INSERT
  8
Layer0$C$L0
  2
TOPSET_141
 10
5.198048
 20
2.777907
 50
270.000001
  0
INSERT
  8
Layer0$C$L0
  2
TOPSET_141
 10
5.198048
 20
2.987909
 50
270.000001
  0
LINE
  8
Layer85$C$L85
 10
10.229443
 20
-3.300000
 11
10.229443
 21
-2.300000
  0
LINE
  8
Layer85$C$L85
  6
PHANTOM
 10
11.864440
 20
-3.300000
 11
15.134442
 21
-3.300000
  0
LINE
  8
Layer85$C$L85
 10
10.229443
 20
-2.425000
 11
10.347897
 21
-2.425000
  0
LINE
  8
Layer85$C$L85
 10
10.316124
 20
-2.300000
 11
10.407441
 21
-2.300000
  0
LINE
  8
Layer85$C$L85
 10
10.407441
 20
-2.425000
 11
11.571442
 21
-2.425000
  0
LINE
  8
Layer85$C$L85
 10
10.354443
 20
-2.800000
 11
10.347897
 21
-2.425000
  0
LINE
  8
Layer85$C$L85
 10
11.749443
 20
-2.800000
 11
10.354443
 21
-2.800000
  0
LINE
  8
Layer85$C$L85
 10
11.571442
 20
-2.300000
 11
11.662762
 21
-2.300000
  0
LINE
  8
Layer85$C$L85
 10
10.138536
 20
-0.675000
 11
10.205347
 21
-0.675000
  0
LINE
  8
Layer85$C$L85
 10
10.114443
 20
-3.300000
 11
10.114443
 21
-2.300000
  0
LINE
  8
Layer85$C$L85
 10
10.229443
 20
-2.300000
 11
10.215347
 21
-0.684913
  0
LINE
  8
Layer85$C$L85
 10
10.114443
 20
-2.300000
 11
10.128536
 21
-0.684913
  0
ARC
  8
Layer85$C$L85
 10
10.205347
 20
-0.685000
 40
1.000000E-02
100
AcDbArc
 50
0.499999
 51
90.000003
  0
ARC
  8
Layer85$C$L85
 10
10.138536
 20
-0.685000
 40
1.000000E-02
100
AcDbArc
 50
90.000003
 51
179.499994
  0
LINE
  8
Layer85$C$L85
 10
10.042858
 20
-0.570000
 11
10.019033
 21
-3.300000
  0
LINE
  8
Layer85$C$L85
 10
10.301026
 20
-0.570000
 11
10.317127
 21
-2.415000
  0
LINE
  8
Layer85$C$L85
 10
10.229443
 20
-2.415000
 11
10.317127
 21
-2.415000
  0
LINE
  8
Layer85$C$L85
 10
6.204046
 20
1.694296
 11
6.204046
 21
3.444296
  0
LINE
  8
Layer85$C$L85
 10
2.204047
 20
1.934296
 11
3.579047
 21
1.934296
  0
ARC
  8
Layer85$C$L85
 10
5.892046
 20
2.719297
 40
0.203000
100
AcDbArc
 50
359.999983
 51
540.000001
  0
ARC
  8
Layer85$C$L85
 10
5.892046
 20
2.719297
 40
0.109000
100
AcDbArc
 50
359.999983
 51
540.000001
  0
ARC
  8
Layer85$C$L85
 10
5.892046
 20
2.419297
 40
0.109000
100
AcDbArc
 50
180.000005
 51
360.000037
  0
ARC
  8
Layer85$C$L85
 10
5.892046
 20
2.419297
 40
0.203000
100
AcDbArc
 50
180.000005
 51
360.000037
  0
ARC
  8
Layer85$C$L85
 10
2.516047
 20
2.419297
 40
0.203000
100
AcDbArc
 50
180.000005
 51
360.000037
  0
ARC
  8
Layer85$C$L85
 10
2.516047
 20
2.419297
 40
0.109000
100
AcDbArc
 50
180.000005
 51
360.000037
  0
ARC
  8
Layer85$C$L85
 10
2.516047
 20
2.719297
 40
0.109000
100
AcDbArc
 50
5.008956E-06
 51
179.999978
  0
ARC
  8
Layer85$C$L85
 10
2.516047
 20
2.719297
 40
0.203000
100
AcDbArc
 50
5.008956E-06
 51
179.999978
  0
LINE
  8
Layer85$C$L85
 10
2.313046
 20
2.719297
 11
2.313046
 21
2.419297
  0
LINE
  8
Layer85$C$L85
 10
2.407046
 20
2.719297
 11
2.407046
 21
2.419297
  0
LINE
  8
Layer85$C$L85
 10
2.625046
 20
2.719297
 11
2.625046
 21
2.419297
  0
LINE
  8
Layer85$C$L85
 10
2.719046
 20
2.719297
 11
2.719046
 21
2.419297
  0
LINE
  8
Layer85$C$L85
 10
3.579047
 20
3.150907
 11
3.579047
 21
3.329297
  0
LINE
  8
Layer85$C$L85
 10
4.829047
 20
3.150907
 11
4.829047
 21
3.329297
  0
LINE
  8
Layer85$C$L85
 10
6.095045
 20
2.719297
 11
6.095045
 21
2.419297
  0
LINE
  8
Layer85$C$L85
 10
6.001045
 20
2.719297
 11
6.001045
 21
2.419297
  0
LINE
  8
Layer85$C$L85
 10
5.783045
 20
2.719297
 11
5.783045
 21
2.419297
  0
LINE
  8
Layer85$C$L85
 10
5.689045
 20
2.719297
 11
5.689045
 21
2.419297
  0
LINE
  8
Layer85$C$L85
 10
2.204047
 20
1.694297
 11
2.204047
 21
3.444296
  0
LINE
  8
Layer85$C$L85
 10
4.829047
 20
1.934296
 11
6.204046
 21
1.934296
  0
LINE
  8
Layer85$C$L85
 10
6.070042
 20
1.809296
 11
6.204046
 21
1.809296
  0
LINE
  8
Layer85$C$L85
 10
2.204047
 20
1.809296
 11
2.338051
 21
1.809296
  0
LINE
  8
Layer85$C$L85
 10
2.570639
 20
1.809296
 11
5.838051
 21
1.809296
  0
LINE
  8
Layer85$C$L85
 10
6.070639
 20
1.694297
 11
6.204046
 21
1.694297
  0
LINE
  8
Layer85$C$L85
 10
2.570639
 20
1.694297
 11
5.837454
 21
1.694297
  0
ARC
  8
Layer85$C$L85
 10
5.954046
 20
1.751796
 40
0.130000
100
AcDbArc
 50
206.251154
 51
333.748861
  0
ARC
  8
Layer85$C$L85
 10
5.954046
 20
1.751796
 40
0.130000
100
AcDbArc
 50
26.251154
 51
153.748829
  0
ARC
  8
Layer85$C$L85
 10
2.454047
 20
1.751796
 40
0.130000
100
AcDbArc
 50
26.251154
 51
153.748829
  0
ARC
  8
Layer85$C$L85
 10
2.454047
 20
1.751796
 40
0.130000
100
AcDbArc
 50
206.251181
 51
333.748861
  0
LINE
  8
Layer85$C$L85
 10
2.204047
 20
1.694297
 11
2.337454
 21
1.694297
  0
CIRCLE
  5
9d
100
AcDbEntity
  8
Layer85$C$L85
100
AcDbCircle
 10
2.454047
 20
1.751796
 40
5.500000E-02
  0
CIRCLE
  5
9e
100
AcDbEntity
  8
Layer85$C$L85
100
AcDbCircle
 10
5.954046
 20
1.751796
 40
5.500000E-02
  0
LINE
  8
Layer0$C$L0
 10
5.354047
 20
3.150907
 11
5.354047
 21
1.986907
  0
LINE
  8
Layer0$C$L0
 10
2.854047
 20
3.150907
 11
2.854047
 21
1.986907
  0
LINE
  8
Layer85$C$L85
 10
3.579047
 20
1.809296
 11
3.579047
 21
1.986907
  0
LINE
  8
Layer85$C$L85
 10
4.829047
 20
1.809296
 11
4.829047
 21
1.986907
  0
LINE
  8
Layer0$C$L0
 10
10.407441
 20
-1.175000
 11
11.571442
 21
-1.175000
  0
LINE
  8
Layer0$C$L0
 62
     6
 10
10.042858
 20
-0.570000
 11
10.301026
 21
-0.570000
  0
LINE
  8
Layer0$C$L0
 10
2.854047
 20
3.150907
 11
5.354047
 21
3.150907
  0
LINE
  8
Layer0$C$L0
 10
2.854047
 20
1.986907
 11
5.354047
 21
1.986907
  0
LINE
  8
Layer0$C$L0
 10
5.042048
 20
3.150907
 11
5.042048
 21
1.986907
  0
LINE
  8
Layer0$C$L0
 10
4.730047
 20
3.150907
 11
4.730047
 21
1.986907
  0
LINE
  8
Layer0$C$L0
 10
4.230047
 20
3.150907
 11
4.230047
 21
2.818907
  0
CIRCLE
  5
9f
100
AcDbEntity
  8
Layer0$C$L0
100
AcDbCircle
 10
4.154047
 20
2.568907
 40
0.136000
  0
CIRCLE
  5
a0
100
AcDbEntity
  8
Layer0$C$L0
100
AcDbCircle
 10
4.154047
 20
2.568907
 40
0.250000
  0
LINE
  8
Layer0$C$L0
 10
4.154047
 20
2.818907
 11
4.230047
 21
2.818907
  0
LINE
  8
Layer0$C$L0
 10
4.154047
 20
2.318907
 11
4.230047
 21
2.318907
  0
LINE
  8
Layer0$C$L0
 10
4.230047
 20
2.318907
 11
4.230047
 21
1.986907
  0
LINE
  8
Layer0$C$L0
 10
4.050775
 20
2.657399
 11
4.144897
 21
2.603058
  0
LINE
  8
Layer0$C$L0
 10
4.025775
 20
2.614098
 11
4.119897
 21
2.559757
  0
LINE
  8
Layer0$C$L0
 10
4.242539
 20
2.672180
 11
4.188198
 21
2.578058
  0
LINE
  8
Layer0$C$L0
 10
4.199238
 20
2.697180
 11
4.144897
 21
2.603058
  0
CIRCLE
  5
a1
100
AcDbEntity
  8
Layer0$C$L0
100
AcDbCircle
 10
4.154047
 20
2.568907
 40
0.180000
  0
LINE
  8
Layer0$C$L0
 10
4.188198
 20
2.578058
 11
4.282320
 21
2.523717
  0
LINE
  8
Layer0$C$L0
 10
4.163198
 20
2.534757
 11
4.108856
 21
2.440635
  0
LINE
  8
Layer0$C$L0
 10
4.119897
 20
2.559757
 11
4.065555
 21
2.465635
  0
LINE
  8
Layer0$C$L0
 10
4.163198
 20
2.534757
 11
4.257319
 21
2.480415
  0
LINE
  8
Layer0$C$L0
 10
4.199238
 20
2.697180
 11
4.242539
 21
2.672180
  0
LINE
  8
Layer0$C$L0
 10
4.050775
 20
2.657399
 11
4.025775
 21
2.614098
  0
LINE
  8
Layer0$C$L0
 10
4.065555
 20
2.465635
 11
4.108856
 21
2.440635
  0
LINE
  8
Layer0$C$L0
 10
4.282320
 20
2.523717
 11
4.257319
 21
2.480415
  0
LINE
  8
Layer0$C$L0
 10
10.407441
 20
-2.425000
 11
10.407441
 21
-1.175000
  0
LINE
  8
Layer0$C$L0
 10
11.571442
 20
-2.425000
 11
11.571442
 21
-1.175000
  0
LINE
  8
Layer0$C$L0
  6
PHANTOM
 10
14.836441
 20
-2.425000
 11
14.836441
 21
-1.175000
  0
LINE
  8
Layer0$C$L0
  6
PHANTOM
 10
13.672441
 20
-2.425000
 11
13.672441
 21
-1.175000
  0
LINE
  8
Layer0$C$L0
  6
PHANTOM
 10
13.206441
 20
-2.425000
 11
13.206441
 21
-1.175000
  0
LINE
  8
Layer0$C$L0
  6
PHANTOM
 10
12.042441
 20
-2.425000
 11
12.042441
 21
-1.175000
  0
LINE
  8
Layer0$C$L0
  6
PHANTOM
 10
13.672441
 20
-1.175000
 11
14.836441
 21
-1.175000
  0
LINE
  8
Layer0$C$L0
  6
PHANTOM
 10
12.042441
 20
-1.175000
 11
13.206441
 21
-1.175000
  0
LINE
  8
Layer85$C$L85
 10
2.570639
 20
3.444296
 11
5.838051
 21
3.444296
  0
LINE
  8
Layer85$C$L85
 10
2.570639
 20
3.329297
 11
5.837454
 21
3.329297
  0
CIRCLE
  5
a2
100
AcDbEntity
  8
Layer85$C$L85
100
AcDbCircle
 10
5.954046
 20
3.386796
 40
5.500000E-02
  0
CIRCLE
  5
a3
100
AcDbEntity
  8
Layer85$C$L85
100
AcDbCircle
 10
2.454047
 20
3.386796
 40
5.500000E-02
  0
LINE
  8
Layer85$C$L85
 10
2.204047
 20
3.329297
 11
2.337454
 21
3.329297
  0
ARC
  8
Layer85$C$L85
 10
2.454047
 20
3.386796
 40
0.130000
100
AcDbArc
 50
206.251181
 51
333.748861
  0
ARC
  8
Layer85$C$L85
 10
2.454047
 20
3.386796
 40
0.130000
100
AcDbArc
 50
26.251154
 51
153.748829
  0
ARC
  8
Layer85$C$L85
 10
5.954046
 20
3.386796
 40
0.130000
100
AcDbArc
 50
26.251154
 51
153.748829
  0
ARC
  8
Layer85$C$L85
 10
5.954046
 20
3.386796
 40
0.130000
100
AcDbArc
 50
206.251154
 51
333.748861
  0
LINE
  8
Layer85$C$L85
 10
6.070639
 20
3.329297
 11
6.204046
 21
3.329297
  0
LINE
  8
Layer85$C$L85
 10
2.204047
 20
3.444296
 11
2.338051
 21
3.444296
  0
LINE
  8
Layer85$C$L85
 10
6.070042
 20
3.444296
 11
6.204046
 21
3.444296
  0
LINE
  8
Layer85$C$L85
 10
11.864443
 20
-2.415000
 11
11.952127
 21
-2.415000
  0
LINE
  8
Layer85$C$L85
 10
11.864440
 20
-3.300000
 11
11.864440
 21
-2.300000
  0
LINE
  8
Layer85$C$L85
 10
11.936943
 20
-0.675000
 11
11.952127
 21
-2.415000
  0
LINE
  8
Layer85$C$L85
 10
11.676943
 20
-0.675000
 11
11.658398
 21
-2.800000
  0
ARC
  8
Layer85$C$L85
 10
11.773537
 20
-0.685000
 40
1.000000E-02
100
AcDbArc
 50
90.000003
 51
179.499994
  0
ARC
  8
Layer85$C$L85
 10
11.840347
 20
-0.685000
 40
1.000000E-02
100
AcDbArc
 50
0.500023
 51
90.000003
  0
LINE
  8
Layer85$C$L85
 10
11.749443
 20
-2.300000
 11
11.763536
 21
-0.684913
  0
LINE
  8
Layer85$C$L85
 10
11.864443
 20
-2.300000
 11
11.850348
 21
-0.684913
  0
LINE
  8
Layer85$C$L85
 10
11.749443
 20
-2.800000
 11
11.749443
 21
-2.300000
  0
LINE
  8
Layer85$C$L85
 10
11.773537
 20
-0.675000
 11
11.840347
 21
-0.675000
  0
LINE
  8
Layer85$C$L85
  6
PHANTOM
 10
13.311942
 20
-0.675000
 11
13.571942
 21
-0.675000
  0
LINE
  8
Layer85$C$L85
  6
PHANTOM
 10
13.206441
 20
-2.300000
 11
13.297761
 21
-2.300000
  0
LINE
  8
Layer85$C$L85
  6
PHANTOM
 10
13.499442
 20
-3.300000
 11
13.499442
 21
-2.300000
  0
LINE
  8
Layer85$C$L85
  6
PHANTOM
 10
13.384442
 20
-2.800000
 11
13.384442
 21
-2.300000
  0
LINE
  8
Layer85$C$L85
  6
PHANTOM
 10
13.499442
 20
-2.300000
 11
13.485347
 21
-0.684913
  0
LINE
  8
Layer85$C$L85
  6
PHANTOM
 10
13.384442
 20
-2.300000
 11
13.398536
 21
-0.684913
  0
ARC
  8
Layer85$C$L85
  6
PHANTOM
 10
13.475347
 20
-0.685000
 40
1.000000E-02
100
AcDbArc
 50
0.499999
 51
90.000003
  0
ARC
  8
Layer85$C$L85
  6
PHANTOM
 10
13.408536
 20
-0.685000
 40
1.000000E-02
100
AcDbArc
 50
90.000003
 51
179.499994
  0
LINE
  8
Layer85$C$L85
  6
PHANTOM
 10
13.384442
 20
-2.800000
 11
11.989442
 21
-2.800000
  0
LINE
  8
Layer85$C$L85
  6
PHANTOM
 10
11.989442
 20
-2.800000
 11
11.982896
 21
-2.425000
  0
LINE
  8
Layer85$C$L85
  6
PHANTOM
 10
13.311942
 20
-0.675000
 11
13.293397
 21
-2.800000
  0
LINE
  8
Layer85$C$L85
  6
PHANTOM
 10
13.571942
 20
-0.675000
 11
13.587127
 21
-2.415000
  0
LINE
  8
Layer85$C$L85
  6
PHANTOM
 10
13.499442
 20
-2.415000
 11
13.587127
 21
-2.415000
  0
LINE
  8
Layer85$C$L85
  6
PHANTOM
 10
12.042441
 20
-2.425000
 11
13.206441
 21
-2.425000
  0
LINE
  8
Layer85$C$L85
  6
PHANTOM
 10
11.951124
 20
-2.300000
 11
12.042441
 21
-2.300000
  0
LINE
  8
Layer85$C$L85
  6
PHANTOM
 10
11.864443
 20
-2.425000
 11
11.982896
 21
-2.425000
  0
LINE
  8
Layer85$C$L85
  6
PHANTOM
 10
15.134440
 20
-3.300000
 11
15.134440
 21
-2.300000
  0
LINE
  8
Layer85$C$L85
  6
PHANTOM
 10
13.499443
 20
-2.425000
 11
13.617896
 21
-2.425000
  0
LINE
  8
Layer85$C$L85
  6
PHANTOM
 10
13.586124
 20
-2.300000
 11
13.672441
 21
-2.300000
  0
LINE
  8
Layer85$C$L85
  6
PHANTOM
 10
13.672441
 20
-2.425000
 11
14.836441
 21
-2.425000
  0
LINE
  8
Layer85$C$L85
  6
PHANTOM
 10
15.134442
 20
-2.415000
 11
15.222127
 21
-2.415000
  0
LINE
  8
Layer85$C$L85
  6
PHANTOM
 10
15.206943
 20
-0.675000
 11
15.222127
 21
-2.415000
  0
LINE
  8
Layer85$C$L85
  6
PHANTOM
 10
14.946942
 20
-0.675000
 11
14.928397
 21
-2.800000
  0
LINE
  8
Layer85$C$L85
  6
PHANTOM
 10
13.624442
 20
-2.800000
 11
13.617896
 21
-2.425000
  0
LINE
  8
Layer85$C$L85
  6
PHANTOM
 10
15.019443
 20
-2.800000
 11
13.624442
 21
-2.800000
  0
ARC
  8
Layer85$C$L85
  6
PHANTOM
 10
15.043536
 20
-0.685000
 40
1.000000E-02
100
AcDbArc
 50
90.000003
 51
179.499994
  0
ARC
  8
Layer85$C$L85
  6
PHANTOM
 10
15.110347
 20
-0.685000
 40
1.000000E-02
100
AcDbArc
 50
0.499999
 51
90.000003
  0
LINE
  8
Layer85$C$L85
  6
PHANTOM
 10
15.019443
 20
-2.300000
 11
15.033536
 21
-0.684913
  0
LINE
  8
Layer85$C$L85
  6
PHANTOM
 10
15.134442
 20
-2.300000
 11
15.120347
 21
-0.684913
  0
LINE
  8
Layer85$C$L85
  6
PHANTOM
 10
15.019443
 20
-2.800000
 11
15.019443
 21
-2.300000
  0
LINE
  8
Layer85$C$L85
  6
PHANTOM
 10
14.836441
 20
-2.300000
 11
14.932761
 21
-2.300000
  0
LINE
  8
Layer85$C$L85
  6
PHANTOM
 10
14.946942
 20
-0.675000
 11
15.206943
 21
-0.675000
  0
ENDSEC
  0
EOF
